  0
SECTION
  2
HEADER
  9
$ACADVER
  1
AC1015
  9
$ACADMAINTVER
 70
    20
  9
$DWGCODEPAGE
  3
ANSI_1252
  9
$INSBASE
 10
0.0
 20
0.0
 30
0.0
  9
$EXTMIN
 10
42.09188945280451
 20
1.835304605757085
 30
0.0
  9
$EXTMAX
 10
73.2168894508592
 20
22.46030460446803
 30
0.0
  9
$LIMMIN
 10
0.0
 20
0.0
  9
$LIMMAX
 10
12.0
 20
9.0
  9
$ORTHOMODE
 70
     0
  9
$REGENMODE
 70
     1
  9
$FILLMODE
 70
     1
  9
$QTEXTMODE
 70
     0
  9
$MIRRTEXT
 70
     0
  9
$LTSCALE
 40
1.0
  9
$ATTMODE
 70
     1
  9
$TEXTSIZE
 40
1.0
  9
$TRACEWID
 40
0.05
  9
$TEXTSTYLE
  7
STANDARD
  9
$CLAYER
  8
1
  9
$CELTYPE
  6
Continuous
  9
$CECOLOR
 62
     3
  9
$CELTSCALE
 40
1.0
  9
$DISPSILH
 70
     0
  9
$DIMSCALE
 40
1.0
  9
$DIMASZ
 40
1.0
  9
$DIMEXO
 40
0.0625
  9
$DIMDLI
 40
0.38
  9
$DIMRND
 40
0.0
  9
$DIMDLE
 40
0.0
  9
$DIMEXE
 40
0.18
  9
$DIMTP
 40
0.0
  9
$DIMTM
 40
0.0
  9
$DIMTXT
 40
1.0
  9
$DIMCEN
 40
0.09
  9
$DIMTSZ
 40
0.0
  9
$DIMTOL
 70
     0
  9
$DIMLIM
 70
     0
  9
$DIMTIH
 70
     1
  9
$DIMTOH
 70
     1
  9
$DIMSE1
 70
     0
  9
$DIMSE2
 70
     0
  9
$DIMTAD
 70
     0
  9
$DIMZIN
 70
     8
  9
$DIMBLK
  1

  9
$DIMASO
 70
     1
  9
$DIMSHO
 70
     1
  9
$DIMPOST
  1

  9
$DIMAPOST
  1

  9
$DIMALT
 70
     0
  9
$DIMALTD
 70
     2
  9
$DIMALTF
 40
25.4
  9
$DIMLFAC
 40
1.0
  9
$DIMTOFL
 70
     0
  9
$DIMTVP
 40
0.0
  9
$DIMTIX
 70
     0
  9
$DIMSOXD
 70
     0
  9
$DIMSAH
 70
     0
  9
$DIMBLK1
  1

  9
$DIMBLK2
  1

  9
$DIMSTYLE
  2
Standard
  9
$DIMCLRD
 70
     0
  9
$DIMCLRE
 70
     0
  9
$DIMCLRT
 70
     0
  9
$DIMTFAC
 40
1.0
  9
$DIMGAP
 40
0.2
  9
$DIMJUST
 70
     0
  9
$DIMSD1
 70
     0
  9
$DIMSD2
 70
     0
  9
$DIMTOLJ
 70
     1
  9
$DIMTZIN
 70
     0
  9
$DIMALTZ
 70
     0
  9
$DIMALTTZ
 70
     0
  9
$DIMUPT
 70
     0
  9
$DIMDEC
 70
     2
  9
$DIMTDEC
 70
     2
  9
$DIMALTU
 70
     2
  9
$DIMALTTD
 70
     2
  9
$DIMTXSTY
  7
STANDARD
  9
$DIMAUNIT
 70
     0
  9
$DIMADEC
 70
     0
  9
$DIMALTRND
 40
0.0
  9
$DIMAZIN
 70
     0
  9
$DIMDSEP
 70
    46
  9
$DIMATFIT
 70
     3
  9
$DIMFRAC
 70
     0
  9
$DIMLDRBLK
  1

  9
$DIMLUNIT
 70
     2
  9
$DIMLWD
 70
    -2
  9
$DIMLWE
 70
    -2
  9
$DIMTMOVE
 70
     0
  9
$LUNITS
 70
     2
  9
$LUPREC
 70
     3
  9
$SKETCHINC
 40
0.1
  9
$FILLETRAD
 40
0.25
  9
$AUNITS
 70
     0
  9
$AUPREC
 70
     1
  9
$MENU
  1
.
  9
$ELEVATION
 40
0.0
  9
$PELEVATION
 40
0.0
  9
$THICKNESS
 40
0.0
  9
$LIMCHECK
 70
     0
  9
$CHAMFERA
 40
0.25
  9
$CHAMFERB
 40
0.25
  9
$CHAMFERC
 40
0.0
  9
$CHAMFERD
 40
0.0
  9
$SKPOLY
 70
     0
  9
$TDCREATE
 40
2453846.533579097
  9
$TDUCREATE
 40
2453846.700245764
  9
$TDUPDATE
 40
2457851.662738669
  9
$TDUUPDATE
 40
2457851.829405336
  9
$TDINDWG
 40
0.0707654514
  9
$TDUSRTIMER
 40
0.0707654514
  9
$USRTIMER
 70
     1
  9
$ANGBASE
 50
0.0
  9
$ANGDIR
 70
     0
  9
$PDMODE
 70
     2
  9
$PDSIZE
 40
-0.01
  9
$PLINEWID
 40
0.0
  9
$SPLFRAME
 70
     0
  9
$SPLINETYPE
 70
     6
  9
$SPLINESEGS
 70
     8
  9
$HANDSEED
  5
154B
  9
$SURFTAB1
 70
     6
  9
$SURFTAB2
 70
     6
  9
$SURFTYPE
 70
     6
  9
$SURFU
 70
     6
  9
$SURFV
 70
     6
  9
$UCSBASE
  2

  9
$UCSNAME
  2

  9
$UCSORG
 10
0.0
 20
0.0
 30
0.0
  9
$UCSXDIR
 10
1.0
 20
0.0
 30
0.0
  9
$UCSYDIR
 10
0.0
 20
1.0
 30
0.0
  9
$UCSORTHOREF
  2

  9
$UCSORTHOVIEW
 70
     0
  9
$UCSORGTOP
 10
0.0
 20
0.0
 30
0.0
  9
$UCSORGBOTTOM
 10
0.0
 20
0.0
 30
0.0
  9
$UCSORGLEFT
 10
0.0
 20
0.0
 30
0.0
  9
$UCSORGRIGHT
 10
0.0
 20
0.0
 30
0.0
  9
$UCSORGFRONT
 10
0.0
 20
0.0
 30
0.0
  9
$UCSORGBACK
 10
0.0
 20
0.0
 30
0.0
  9
$PUCSBASE
  2

  9
$PUCSNAME
  2

  9
$PUCSORG
 10
0.0
 20
0.0
 30
0.0
  9
$PUCSXDIR
 10
1.0
 20
0.0
 30
0.0
  9
$PUCSYDIR
 10
0.0
 20
1.0
 30
0.0
  9
$PUCSORTHOREF
  2

  9
$PUCSORTHOVIEW
 70
     0
  9
$PUCSORGTOP
 10
0.0
 20
0.0
 30
0.0
  9
$PUCSORGBOTTOM
 10
0.0
 20
0.0
 30
0.0
  9
$PUCSORGLEFT
 10
0.0
 20
0.0
 30
0.0
  9
$PUCSORGRIGHT
 10
0.0
 20
0.0
 30
0.0
  9
$PUCSORGFRONT
 10
0.0
 20
0.0
 30
0.0
  9
$PUCSORGBACK
 10
0.0
 20
0.0
 30
0.0
  9
$USERI1
 70
     0
  9
$USERI2
 70
     0
  9
$USERI3
 70
     0
  9
$USERI4
 70
     0
  9
$USERI5
 70
     0
  9
$USERR1
 40
0.0
  9
$USERR2
 40
0.0
  9
$USERR3
 40
0.0
  9
$USERR4
 40
0.0
  9
$USERR5
 40
0.0
  9
$WORLDVIEW
 70
     1
  9
$SHADEDGE
 70
     3
  9
$SHADEDIF
 70
    70
  9
$TILEMODE
 70
     1
  9
$MAXACTVP
 70
    64
  9
$PINSBASE
 10
0.0
 20
0.0
 30
0.0
  9
$PLIMCHECK
 70
     0
  9
$PEXTMIN
 10
1.000000000000000E+20
 20
1.000000000000000E+20
 30
1.000000000000000E+20
  9
$PEXTMAX
 10
-1.000000000000000E+20
 20
-1.000000000000000E+20
 30
-1.000000000000000E+20
  9
$PLIMMIN
 10
0.0
 20
0.0
  9
$PLIMMAX
 10
12.0
 20
9.0
  9
$UNITMODE
 70
     0
  9
$VISRETAIN
 70
     1
  9
$PLINEGEN
 70
     0
  9
$PSLTSCALE
 70
     1
  9
$TREEDEPTH
 70
  3020
  9
$CMLSTYLE
  2
Standard
  9
$CMLJUST
 70
     0
  9
$CMLSCALE
 40
1.0
  9
$PROXYGRAPHICS
 70
     1
  9
$MEASUREMENT
 70
     0
  9
$CELWEIGHT
370
    -1
  9
$ENDCAPS
280
     0
  9
$JOINSTYLE
280
     0
  9
$LWDISPLAY
290
     0
  9
$INSUNITS
 70
     0
  9
$HYPERLINKBASE
  1

  9
$STYLESHEET
  1
monochrome.ctb
  9
$XEDIT
290
     1
  9
$CEPSNTYPE
380
     0
  9
$PSTYLEMODE
290
     1
  9
$FINGERPRINTGUID
  2
{CDA190BE-A38B-4DCA-B99B-63D4BC49714D}
  9
$VERSIONGUID
  2
{9CBE0B76-98C7-42AC-AAE4-9BFC938ED771}
  9
$EXTNAMES
290
     1
  9
$PSVPSCALE
 40
0.0
  9
$OLESTARTUP
290
     0
  0
ENDSEC
  0
SECTION
  2
CLASSES
  0
CLASS
  1
ACDBDICTIONARYWDFLT
  2
AcDbDictionaryWithDefault
  3
ObjectDBX Classes
 90
        0
280
     0
281
     0
  0
CLASS
  1
TABLESTYLE
  2
AcDbTableStyle
  3
ObjectDBX Classes
 90
     4095
280
     0
281
     0
  0
CLASS
  1
DICTIONARYVAR
  2
AcDbDictionaryVar
  3
ObjectDBX Classes
 90
        0
280
     0
281
     0
  0
CLASS
  1
SORTENTSTABLE
  2
AcDbSortentsTable
  3
ObjectDBX Classes
 90
        0
280
     0
281
     0
  0
CLASS
  1
MATERIAL
  2
AcDbMaterial
  3
ObjectDBX Classes
 90
     1153
280
     0
281
     0
  0
CLASS
  1
VISUALSTYLE
  2
AcDbVisualStyle
  3
ObjectDBX Classes
 90
     4095
280
     0
281
     0
  0
CLASS
  1
SCALE
  2
AcDbScale
  3
ObjectDBX Classes
 90
     1153
280
     0
281
     0
  0
CLASS
  1
MLEADERSTYLE
  2
AcDbMLeaderStyle
  3
ACDB_MLEADERSTYLE_CLASS
 90
     4095
280
     0
281
     0
  0
CLASS
  1
DIMASSOC
  2
AcDbDimAssoc
  3
"AcDbDimAssoc|Product Desc:     AcDim ARX App For Dimension|Company:          Autodesk, Inc.|WEB Address:      www.autodesk.com"
 90
    32768
280
     0
281
     0
  0
CLASS
  1
CELLSTYLEMAP
  2
AcDbCellStyleMap
  3
ObjectDBX Classes
 90
     1152
280
     0
281
     0
  0
CLASS
  1
ACDBPLACEHOLDER
  2
AcDbPlaceHolder
  3
ObjectDBX Classes
 90
        0
280
     0
281
     0
  0
CLASS
  1
LAYOUT
  2
AcDbLayout
  3
ObjectDBX Classes
 90
        0
280
     0
281
     0
  0
ENDSEC
  0
SECTION
  2
TABLES
  0
TABLE
  2
VPORT
  5
8
102
{ACAD_XDICTIONARY
360
12AB
102
}
330
0
100
AcDbSymbolTable
 70
     1
  0
VPORT
  5
D44
330
8
100
AcDbSymbolTableRecord
100
AcDbViewportTableRecord
  2
*Active
 70
     0
 10
0.0
 20
0.0
 11
1.0
 21
1.0
 12
68.55888479492254
 22
12.61059067211835
 13
0.0
 23
0.0
 14
1.0
 24
1.0
 15
0.0
 25
0.0
 16
0.0
 26
0.0
 36
1.0
 17
0.0
 27
0.0
 37
0.0
 40
25.77607383190276
 41
2.282918149466192
 42
50.0
 43
0.0
 44
0.0
 50
0.0
 51
0.0
 71
     0
 72
   100
 73
     1
 74
     1
 75
     0
 76
     0
 77
     0
 78
     0
281
     0
 65
     1
110
0.0
120
0.0
130
0.0
111
1.0
121
0.0
131
0.0
112
0.0
122
1.0
132
0.0
 79
     0
146
0.0
  0
ENDTAB
  0
TABLE
  2
LTYPE
  5
5
330
0
100
AcDbSymbolTable
 70
     8
  0
LTYPE
  5
13
330
5
100
AcDbSymbolTableRecord
100
AcDbLinetypeTableRecord
  2
ByBlock
 70
     0
  3

 72
    65
 73
     0
 40
0.0
  0
LTYPE
  5
14
330
5
100
AcDbSymbolTableRecord
100
AcDbLinetypeTableRecord
  2
ByLayer
 70
     0
  3

 72
    65
 73
     0
 40
0.0
  0
LTYPE
  5
15
330
5
100
AcDbSymbolTableRecord
100
AcDbLinetypeTableRecord
  2
Continuous
 70
     0
  3
Solid line
 72
    65
 73
     0
 40
0.0
  0
LTYPE
  5
27
330
5
100
AcDbSymbolTableRecord
100
AcDbLinetypeTableRecord
  2
HIDDENNEW00
 70
     0
  3
_ 
 72
    65
 73
     2
 40
0.1875
 49
0.125
 74
     0
 49
-0.0625
 74
     0
  0
LTYPE
  5
28
330
5
100
AcDbSymbolTableRecord
100
AcDbLinetypeTableRecord
  2
HIDDENNEW01
 70
     0
  3
_ 
 72
    65
 73
     2
 40
0.1875
 49
0.125
 74
     0
 49
-0.0625
 74
     0
  0
LTYPE
  5
29
330
5
100
AcDbSymbolTableRecord
100
AcDbLinetypeTableRecord
  2
HIDDEN
 70
     0
  3
_ 
 72
    65
 73
     2
 40
0.1875
 49
0.125
 74
     0
 49
-0.0625
 74
     0
  0
LTYPE
  5
2A
330
5
100
AcDbSymbolTableRecord
100
AcDbLinetypeTableRecord
  2
CENTERLINE
 70
     0
  3
_ 
 72
    65
 73
     4
 40
1.25
 49
1.0
 74
     0
 49
-0.0625
 74
     0
 49
0.125
 74
     0
 49
-0.0625
 74
     0
  0
LTYPE
  5
2B
330
5
100
AcDbSymbolTableRecord
100
AcDbLinetypeTableRecord
  2
PHANTOM
 70
     0
  3
_ 
 72
    65
 73
     6
 40
1.1875
 49
0.75
 74
     0
 49
-0.0625
 74
     0
 49
0.125
 74
     0
 49
-0.0625
 74
     0
 49
0.125
 74
     0
 49
-0.0625
 74
     0
  0
LTYPE
  5
2C
330
5
100
AcDbSymbolTableRecord
100
AcDbLinetypeTableRecord
  2
SHORT_DASH
 70
     0
  3
_ 
 72
    65
 73
     2
 40
0.125
 49
0.0625
 74
     0
 49
-0.0625
 74
     0
  0
LTYPE
  5
2D
330
5
100
AcDbSymbolTableRecord
100
AcDbLinetypeTableRecord
  2
LONG_DASH
 70
     0
  3
_ 
 72
    65
 73
     2
 40
0.375
 49
0.1875
 74
     0
 49
-0.1875
 74
     0
  0
ENDTAB
  0
TABLE
  2
LAYER
  5
2
102
{ACAD_XDICTIONARY
360
F18
102
}
330
0
100
AcDbSymbolTable
 70
   184
  0
LAYER
  5
10
102
{ACAD_XDICTIONARY
360
113A
102
}
330
2
100
AcDbSymbolTableRecord
100
AcDbLayerTableRecord
  2
0
 70
     0
 62
     7
  6
Continuous
370
    -3
390
F
  0
LAYER
  5
26
102
{ACAD_XDICTIONARY
360
113C
102
}
330
2
100
AcDbSymbolTableRecord
100
AcDbLayerTableRecord
  2
1
 70
     0
 62
     7
  6
Continuous
370
    -3
390
F
  0
LAYER
  5
2E
102
{ACAD_XDICTIONARY
360
113E
102
}
330
2
100
AcDbSymbolTableRecord
100
AcDbLayerTableRecord
  2
2
 70
     0
 62
     7
  6
Continuous
370
    -3
390
F
  0
LAYER
  5
2F
102
{ACAD_XDICTIONARY
360
1140
102
}
330
2
100
AcDbSymbolTableRecord
100
AcDbLayerTableRecord
  2
3
 70
     0
 62
     7
  6
Continuous
370
    -3
390
F
  0
LAYER
  5
30
102
{ACAD_XDICTIONARY
360
1142
102
}
330
2
100
AcDbSymbolTableRecord
100
AcDbLayerTableRecord
  2
4
 70
     0
 62
     7
  6
Continuous
370
    -3
390
F
  0
LAYER
  5
31
102
{ACAD_XDICTIONARY
360
1144
102
}
330
2
100
AcDbSymbolTableRecord
100
AcDbLayerTableRecord
  2
5
 70
     0
 62
     7
  6
Continuous
370
    -3
390
F
  0
LAYER
  5
32
102
{ACAD_XDICTIONARY
360
1146
102
}
330
2
100
AcDbSymbolTableRecord
100
AcDbLayerTableRecord
  2
6
 70
     0
 62
     7
  6
Continuous
370
    -3
390
F
  0
LAYER
  5
33
102
{ACAD_XDICTIONARY
360
1148
102
}
330
2
100
AcDbSymbolTableRecord
100
AcDbLayerTableRecord
  2
7
 70
     0
 62
     7
  6
Continuous
370
    -3
390
F
  0
LAYER
  5
34
102
{ACAD_XDICTIONARY
360
114A
102
}
330
2
100
AcDbSymbolTableRecord
100
AcDbLayerTableRecord
  2
8
 70
     0
 62
     7
  6
Continuous
370
    -3
390
F
  0
LAYER
  5
35
102
{ACAD_XDICTIONARY
360
114C
102
}
330
2
100
AcDbSymbolTableRecord
100
AcDbLayerTableRecord
  2
9
 70
     0
 62
     7
  6
Continuous
370
    -3
390
F
  0
LAYER
  5
36
102
{ACAD_XDICTIONARY
360
114E
102
}
330
2
100
AcDbSymbolTableRecord
100
AcDbLayerTableRecord
  2
10
 70
     0
 62
     7
  6
Continuous
370
    -3
390
F
  0
LAYER
  5
37
102
{ACAD_XDICTIONARY
360
1150
102
}
330
2
100
AcDbSymbolTableRecord
100
AcDbLayerTableRecord
  2
11
 70
     0
 62
     7
  6
Continuous
370
    -3
390
F
  0
LAYER
  5
38
102
{ACAD_XDICTIONARY
360
1152
102
}
330
2
100
AcDbSymbolTableRecord
100
AcDbLayerTableRecord
  2
12
 70
     0
 62
     7
  6
Continuous
370
    -3
390
F
  0
LAYER
  5
39
102
{ACAD_XDICTIONARY
360
1154
102
}
330
2
100
AcDbSymbolTableRecord
100
AcDbLayerTableRecord
  2
13
 70
     0
 62
     7
  6
Continuous
370
    -3
390
F
  0
LAYER
  5
3A
102
{ACAD_XDICTIONARY
360
1156
102
}
330
2
100
AcDbSymbolTableRecord
100
AcDbLayerTableRecord
  2
14
 70
     0
 62
     7
  6
Continuous
370
    -3
390
F
  0
LAYER
  5
3B
102
{ACAD_XDICTIONARY
360
1158
102
}
330
2
100
AcDbSymbolTableRecord
100
AcDbLayerTableRecord
  2
15
 70
     0
 62
     7
  6
Continuous
370
    -3
390
F
  0
LAYER
  5
3C
102
{ACAD_XDICTIONARY
360
115A
102
}
330
2
100
AcDbSymbolTableRecord
100
AcDbLayerTableRecord
  2
16
 70
     0
 62
     7
  6
Continuous
370
    -3
390
F
  0
LAYER
  5
3D
102
{ACAD_XDICTIONARY
360
115C
102
}
330
2
100
AcDbSymbolTableRecord
100
AcDbLayerTableRecord
  2
17
 70
     0
 62
     7
  6
Continuous
370
    -3
390
F
  0
LAYER
  5
3E
102
{ACAD_XDICTIONARY
360
115E
102
}
330
2
100
AcDbSymbolTableRecord
100
AcDbLayerTableRecord
  2
18
 70
     0
 62
     7
  6
Continuous
370
    -3
390
F
  0
LAYER
  5
3F
102
{ACAD_XDICTIONARY
360
1160
102
}
330
2
100
AcDbSymbolTableRecord
100
AcDbLayerTableRecord
  2
19
 70
     0
 62
     7
  6
Continuous
370
    -3
390
F
  0
LAYER
  5
40
102
{ACAD_XDICTIONARY
360
1162
102
}
330
2
100
AcDbSymbolTableRecord
100
AcDbLayerTableRecord
  2
20
 70
     0
 62
     7
  6
Continuous
370
    -3
390
F
  0
LAYER
  5
41
102
{ACAD_XDICTIONARY
360
1164
102
}
330
2
100
AcDbSymbolTableRecord
100
AcDbLayerTableRecord
  2
21
 70
     0
 62
     7
  6
Continuous
370
    -3
390
F
  0
LAYER
  5
42
102
{ACAD_XDICTIONARY
360
1166
102
}
330
2
100
AcDbSymbolTableRecord
100
AcDbLayerTableRecord
  2
22
 70
     0
 62
     7
  6
Continuous
370
    -3
390
F
  0
LAYER
  5
43
102
{ACAD_XDICTIONARY
360
1168
102
}
330
2
100
AcDbSymbolTableRecord
100
AcDbLayerTableRecord
  2
23
 70
     0
 62
     7
  6
Continuous
370
    -3
390
F
  0
LAYER
  5
44
102
{ACAD_XDICTIONARY
360
116A
102
}
330
2
100
AcDbSymbolTableRecord
100
AcDbLayerTableRecord
  2
24
 70
     0
 62
     7
  6
Continuous
370
    -3
390
F
  0
LAYER
  5
45
102
{ACAD_XDICTIONARY
360
116C
102
}
330
2
100
AcDbSymbolTableRecord
100
AcDbLayerTableRecord
  2
25
 70
     0
 62
     7
  6
Continuous
370
    -3
390
F
  0
LAYER
  5
46
102
{ACAD_XDICTIONARY
360
116E
102
}
330
2
100
AcDbSymbolTableRecord
100
AcDbLayerTableRecord
  2
26
 70
     0
 62
     7
  6
Continuous
370
    -3
390
F
  0
LAYER
  5
47
102
{ACAD_XDICTIONARY
360
1170
102
}
330
2
100
AcDbSymbolTableRecord
100
AcDbLayerTableRecord
  2
27
 70
     0
 62
     7
  6
Continuous
370
    -3
390
F
  0
LAYER
  5
48
102
{ACAD_XDICTIONARY
360
1172
102
}
330
2
100
AcDbSymbolTableRecord
100
AcDbLayerTableRecord
  2
28
 70
     0
 62
     7
  6
Continuous
370
    -3
390
F
  0
LAYER
  5
49
102
{ACAD_XDICTIONARY
360
1174
102
}
330
2
100
AcDbSymbolTableRecord
100
AcDbLayerTableRecord
  2
29
 70
     0
 62
     7
  6
Continuous
370
    -3
390
F
  0
LAYER
  5
4A
102
{ACAD_XDICTIONARY
360
1176
102
}
330
2
100
AcDbSymbolTableRecord
100
AcDbLayerTableRecord
  2
30
 70
     0
 62
     7
  6
Continuous
370
    -3
390
F
  0
LAYER
  5
4B
102
{ACAD_XDICTIONARY
360
1178
102
}
330
2
100
AcDbSymbolTableRecord
100
AcDbLayerTableRecord
  2
31
 70
     0
 62
     7
  6
Continuous
370
    -3
390
F
  0
LAYER
  5
4C
102
{ACAD_XDICTIONARY
360
117A
102
}
330
2
100
AcDbSymbolTableRecord
100
AcDbLayerTableRecord
  2
32
 70
     0
 62
     7
  6
Continuous
370
    -3
390
F
  0
LAYER
  5
4D
102
{ACAD_XDICTIONARY
360
117C
102
}
330
2
100
AcDbSymbolTableRecord
100
AcDbLayerTableRecord
  2
33
 70
     0
 62
     7
  6
Continuous
370
    -3
390
F
  0
LAYER
  5
4E
102
{ACAD_XDICTIONARY
360
117E
102
}
330
2
100
AcDbSymbolTableRecord
100
AcDbLayerTableRecord
  2
34
 70
     0
 62
     7
  6
Continuous
370
    -3
390
F
  0
LAYER
  5
4F
102
{ACAD_XDICTIONARY
360
1180
102
}
330
2
100
AcDbSymbolTableRecord
100
AcDbLayerTableRecord
  2
35
 70
     0
 62
     7
  6
Continuous
370
    -3
390
F
  0
LAYER
  5
50
102
{ACAD_XDICTIONARY
360
1182
102
}
330
2
100
AcDbSymbolTableRecord
100
AcDbLayerTableRecord
  2
36
 70
     0
 62
     7
  6
Continuous
370
    -3
390
F
  0
LAYER
  5
51
102
{ACAD_XDICTIONARY
360
1184
102
}
330
2
100
AcDbSymbolTableRecord
100
AcDbLayerTableRecord
  2
37
 70
     0
 62
     7
  6
Continuous
370
    -3
390
F
  0
LAYER
  5
52
102
{ACAD_XDICTIONARY
360
1186
102
}
330
2
100
AcDbSymbolTableRecord
100
AcDbLayerTableRecord
  2
38
 70
     0
 62
     7
  6
Continuous
370
    -3
390
F
  0
LAYER
  5
53
102
{ACAD_XDICTIONARY
360
1188
102
}
330
2
100
AcDbSymbolTableRecord
100
AcDbLayerTableRecord
  2
39
 70
     0
 62
     7
  6
Continuous
370
    -3
390
F
  0
LAYER
  5
54
102
{ACAD_XDICTIONARY
360
118A
102
}
330
2
100
AcDbSymbolTableRecord
100
AcDbLayerTableRecord
  2
40
 70
     0
 62
     7
  6
Continuous
370
    -3
390
F
  0
LAYER
  5
55
102
{ACAD_XDICTIONARY
360
118C
102
}
330
2
100
AcDbSymbolTableRecord
100
AcDbLayerTableRecord
  2
41
 70
     0
 62
     7
  6
Continuous
370
    -3
390
F
  0
LAYER
  5
56
102
{ACAD_XDICTIONARY
360
118E
102
}
330
2
100
AcDbSymbolTableRecord
100
AcDbLayerTableRecord
  2
42
 70
     0
 62
     7
  6
Continuous
370
    -3
390
F
  0
LAYER
  5
57
102
{ACAD_XDICTIONARY
360
1190
102
}
330
2
100
AcDbSymbolTableRecord
100
AcDbLayerTableRecord
  2
43
 70
     0
 62
     7
  6
Continuous
370
    -3
390
F
  0
LAYER
  5
58
102
{ACAD_XDICTIONARY
360
1192
102
}
330
2
100
AcDbSymbolTableRecord
100
AcDbLayerTableRecord
  2
44
 70
     0
 62
     7
  6
Continuous
370
    -3
390
F
  0
LAYER
  5
59
102
{ACAD_XDICTIONARY
360
1194
102
}
330
2
100
AcDbSymbolTableRecord
100
AcDbLayerTableRecord
  2
45
 70
     0
 62
     7
  6
Continuous
370
    -3
390
F
  0
LAYER
  5
5A
102
{ACAD_XDICTIONARY
360
1196
102
}
330
2
100
AcDbSymbolTableRecord
100
AcDbLayerTableRecord
  2
46
 70
     0
 62
     7
  6
Continuous
370
    -3
390
F
  0
LAYER
  5
5B
102
{ACAD_XDICTIONARY
360
1198
102
}
330
2
100
AcDbSymbolTableRecord
100
AcDbLayerTableRecord
  2
47
 70
     0
 62
     7
  6
Continuous
370
    -3
390
F
  0
LAYER
  5
5C
102
{ACAD_XDICTIONARY
360
119A
102
}
330
2
100
AcDbSymbolTableRecord
100
AcDbLayerTableRecord
  2
48
 70
     0
 62
     7
  6
Continuous
370
    -3
390
F
  0
LAYER
  5
5D
102
{ACAD_XDICTIONARY
360
119C
102
}
330
2
100
AcDbSymbolTableRecord
100
AcDbLayerTableRecord
  2
49
 70
     0
 62
     7
  6
Continuous
370
    -3
390
F
  0
LAYER
  5
5E
102
{ACAD_XDICTIONARY
360
119E
102
}
330
2
100
AcDbSymbolTableRecord
100
AcDbLayerTableRecord
  2
50
 70
     0
 62
     7
  6
Continuous
370
    -3
390
F
  0
LAYER
  5
5F
102
{ACAD_XDICTIONARY
360
11A0
102
}
330
2
100
AcDbSymbolTableRecord
100
AcDbLayerTableRecord
  2
51
 70
     0
 62
     7
  6
Continuous
370
    -3
390
F
  0
LAYER
  5
60
102
{ACAD_XDICTIONARY
360
11A2
102
}
330
2
100
AcDbSymbolTableRecord
100
AcDbLayerTableRecord
  2
52
 70
     0
 62
     7
  6
Continuous
370
    -3
390
F
  0
LAYER
  5
61
102
{ACAD_XDICTIONARY
360
11A4
102
}
330
2
100
AcDbSymbolTableRecord
100
AcDbLayerTableRecord
  2
53
 70
     0
 62
     7
  6
Continuous
370
    -3
390
F
  0
LAYER
  5
62
102
{ACAD_XDICTIONARY
360
11A6
102
}
330
2
100
AcDbSymbolTableRecord
100
AcDbLayerTableRecord
  2
54
 70
     0
 62
     7
  6
Continuous
370
    -3
390
F
  0
LAYER
  5
63
102
{ACAD_XDICTIONARY
360
11A8
102
}
330
2
100
AcDbSymbolTableRecord
100
AcDbLayerTableRecord
  2
55
 70
     0
 62
     7
  6
Continuous
370
    -3
390
F
  0
LAYER
  5
64
102
{ACAD_XDICTIONARY
360
11AA
102
}
330
2
100
AcDbSymbolTableRecord
100
AcDbLayerTableRecord
  2
56
 70
     0
 62
     7
  6
Continuous
370
    -3
390
F
  0
LAYER
  5
65
102
{ACAD_XDICTIONARY
360
11AC
102
}
330
2
100
AcDbSymbolTableRecord
100
AcDbLayerTableRecord
  2
57
 70
     0
 62
     7
  6
Continuous
370
    -3
390
F
  0
LAYER
  5
66
102
{ACAD_XDICTIONARY
360
11AE
102
}
330
2
100
AcDbSymbolTableRecord
100
AcDbLayerTableRecord
  2
58
 70
     0
 62
     7
  6
Continuous
370
    -3
390
F
  0
LAYER
  5
67
102
{ACAD_XDICTIONARY
360
11B0
102
}
330
2
100
AcDbSymbolTableRecord
100
AcDbLayerTableRecord
  2
59
 70
     0
 62
     7
  6
Continuous
370
    -3
390
F
  0
LAYER
  5
68
102
{ACAD_XDICTIONARY
360
11B2
102
}
330
2
100
AcDbSymbolTableRecord
100
AcDbLayerTableRecord
  2
60
 70
     0
 62
     7
  6
Continuous
370
    -3
390
F
  0
LAYER
  5
69
102
{ACAD_XDICTIONARY
360
11B4
102
}
330
2
100
AcDbSymbolTableRecord
100
AcDbLayerTableRecord
  2
61
 70
     0
 62
     7
  6
Continuous
370
    -3
390
F
  0
LAYER
  5
6A
102
{ACAD_XDICTIONARY
360
11B6
102
}
330
2
100
AcDbSymbolTableRecord
100
AcDbLayerTableRecord
  2
62
 70
     0
 62
     7
  6
Continuous
370
    -3
390
F
  0
LAYER
  5
6B
102
{ACAD_XDICTIONARY
360
11B8
102
}
330
2
100
AcDbSymbolTableRecord
100
AcDbLayerTableRecord
  2
63
 70
     0
 62
     7
  6
Continuous
370
    -3
390
F
  0
LAYER
  5
6C
102
{ACAD_XDICTIONARY
360
11BA
102
}
330
2
100
AcDbSymbolTableRecord
100
AcDbLayerTableRecord
  2
64
 70
     0
 62
     7
  6
Continuous
370
    -3
390
F
  0
LAYER
  5
6D
102
{ACAD_XDICTIONARY
360
11BC
102
}
330
2
100
AcDbSymbolTableRecord
100
AcDbLayerTableRecord
  2
65
 70
     0
 62
     7
  6
Continuous
370
    -3
390
F
  0
LAYER
  5
6E
102
{ACAD_XDICTIONARY
360
11BE
102
}
330
2
100
AcDbSymbolTableRecord
100
AcDbLayerTableRecord
  2
66
 70
     0
 62
     7
  6
Continuous
370
    -3
390
F
  0
LAYER
  5
6F
102
{ACAD_XDICTIONARY
360
11C0
102
}
330
2
100
AcDbSymbolTableRecord
100
AcDbLayerTableRecord
  2
67
 70
     0
 62
     7
  6
Continuous
370
    -3
390
F
  0
LAYER
  5
70
102
{ACAD_XDICTIONARY
360
11C2
102
}
330
2
100
AcDbSymbolTableRecord
100
AcDbLayerTableRecord
  2
68
 70
     0
 62
     7
  6
Continuous
370
    -3
390
F
  0
LAYER
  5
71
102
{ACAD_XDICTIONARY
360
11C4
102
}
330
2
100
AcDbSymbolTableRecord
100
AcDbLayerTableRecord
  2
69
 70
     0
 62
     7
  6
Continuous
370
    -3
390
F
  0
LAYER
  5
72
102
{ACAD_XDICTIONARY
360
11C6
102
}
330
2
100
AcDbSymbolTableRecord
100
AcDbLayerTableRecord
  2
70
 70
     0
 62
     7
  6
Continuous
370
    -3
390
F
  0
LAYER
  5
73
102
{ACAD_XDICTIONARY
360
11C8
102
}
330
2
100
AcDbSymbolTableRecord
100
AcDbLayerTableRecord
  2
71
 70
     0
 62
     7
  6
Continuous
370
    -3
390
F
  0
LAYER
  5
74
102
{ACAD_XDICTIONARY
360
11CA
102
}
330
2
100
AcDbSymbolTableRecord
100
AcDbLayerTableRecord
  2
72
 70
     0
 62
     7
  6
Continuous
370
    -3
390
F
  0
LAYER
  5
75
102
{ACAD_XDICTIONARY
360
11CC
102
}
330
2
100
AcDbSymbolTableRecord
100
AcDbLayerTableRecord
  2
73
 70
     0
 62
     7
  6
Continuous
370
    -3
390
F
  0
LAYER
  5
76
102
{ACAD_XDICTIONARY
360
11CE
102
}
330
2
100
AcDbSymbolTableRecord
100
AcDbLayerTableRecord
  2
74
 70
     0
 62
     7
  6
Continuous
370
    -3
390
F
  0
LAYER
  5
77
102
{ACAD_XDICTIONARY
360
11D0
102
}
330
2
100
AcDbSymbolTableRecord
100
AcDbLayerTableRecord
  2
75
 70
     0
 62
     7
  6
Continuous
370
    -3
390
F
  0
LAYER
  5
78
102
{ACAD_XDICTIONARY
360
11D2
102
}
330
2
100
AcDbSymbolTableRecord
100
AcDbLayerTableRecord
  2
76
 70
     0
 62
     7
  6
Continuous
370
    -3
390
F
  0
LAYER
  5
79
102
{ACAD_XDICTIONARY
360
11D4
102
}
330
2
100
AcDbSymbolTableRecord
100
AcDbLayerTableRecord
  2
77
 70
     0
 62
     7
  6
Continuous
370
    -3
390
F
  0
LAYER
  5
7A
102
{ACAD_XDICTIONARY
360
11D6
102
}
330
2
100
AcDbSymbolTableRecord
100
AcDbLayerTableRecord
  2
78
 70
     0
 62
     7
  6
Continuous
370
    -3
390
F
  0
LAYER
  5
7B
102
{ACAD_XDICTIONARY
360
11D8
102
}
330
2
100
AcDbSymbolTableRecord
100
AcDbLayerTableRecord
  2
79
 70
     0
 62
     7
  6
Continuous
370
    -3
390
F
  0
LAYER
  5
7C
102
{ACAD_XDICTIONARY
360
11DA
102
}
330
2
100
AcDbSymbolTableRecord
100
AcDbLayerTableRecord
  2
80
 70
     0
 62
     7
  6
Continuous
370
    -3
390
F
  0
LAYER
  5
7D
102
{ACAD_XDICTIONARY
360
11DC
102
}
330
2
100
AcDbSymbolTableRecord
100
AcDbLayerTableRecord
  2
81
 70
     0
 62
     7
  6
Continuous
370
    -3
390
F
  0
LAYER
  5
7E
102
{ACAD_XDICTIONARY
360
11DE
102
}
330
2
100
AcDbSymbolTableRecord
100
AcDbLayerTableRecord
  2
82
 70
     0
 62
     7
  6
Continuous
370
    -3
390
F
  0
LAYER
  5
7F
102
{ACAD_XDICTIONARY
360
11E0
102
}
330
2
100
AcDbSymbolTableRecord
100
AcDbLayerTableRecord
  2
83
 70
     0
 62
     7
  6
Continuous
370
    -3
390
F
  0
LAYER
  5
80
102
{ACAD_XDICTIONARY
360
11E2
102
}
330
2
100
AcDbSymbolTableRecord
100
AcDbLayerTableRecord
  2
84
 70
     0
 62
     7
  6
Continuous
370
    -3
390
F
  0
LAYER
  5
81
102
{ACAD_XDICTIONARY
360
11E4
102
}
330
2
100
AcDbSymbolTableRecord
100
AcDbLayerTableRecord
  2
85
 70
     0
 62
     7
  6
Continuous
370
    -3
390
F
  0
LAYER
  5
82
102
{ACAD_XDICTIONARY
360
11E6
102
}
330
2
100
AcDbSymbolTableRecord
100
AcDbLayerTableRecord
  2
86
 70
     0
 62
     7
  6
Continuous
370
    -3
390
F
  0
LAYER
  5
83
102
{ACAD_XDICTIONARY
360
11E8
102
}
330
2
100
AcDbSymbolTableRecord
100
AcDbLayerTableRecord
  2
87
 70
     0
 62
     7
  6
Continuous
370
    -3
390
F
  0
LAYER
  5
84
102
{ACAD_XDICTIONARY
360
11EA
102
}
330
2
100
AcDbSymbolTableRecord
100
AcDbLayerTableRecord
  2
88
 70
     0
 62
     7
  6
Continuous
370
    -3
390
F
  0
LAYER
  5
85
102
{ACAD_XDICTIONARY
360
11EC
102
}
330
2
100
AcDbSymbolTableRecord
100
AcDbLayerTableRecord
  2
89
 70
     0
 62
     7
  6
Continuous
370
    -3
390
F
  0
LAYER
  5
86
102
{ACAD_XDICTIONARY
360
11EE
102
}
330
2
100
AcDbSymbolTableRecord
100
AcDbLayerTableRecord
  2
90
 70
     0
 62
     7
  6
Continuous
370
    -3
390
F
  0
LAYER
  5
87
102
{ACAD_XDICTIONARY
360
11F0
102
}
330
2
100
AcDbSymbolTableRecord
100
AcDbLayerTableRecord
  2
91
 70
     0
 62
     7
  6
Continuous
370
    -3
390
F
  0
LAYER
  5
88
102
{ACAD_XDICTIONARY
360
11F2
102
}
330
2
100
AcDbSymbolTableRecord
100
AcDbLayerTableRecord
  2
92
 70
     0
 62
     7
  6
Continuous
370
    -3
390
F
  0
LAYER
  5
89
102
{ACAD_XDICTIONARY
360
11F4
102
}
330
2
100
AcDbSymbolTableRecord
100
AcDbLayerTableRecord
  2
93
 70
     0
 62
     7
  6
Continuous
370
    -3
390
F
  0
LAYER
  5
8A
102
{ACAD_XDICTIONARY
360
11F6
102
}
330
2
100
AcDbSymbolTableRecord
100
AcDbLayerTableRecord
  2
94
 70
     0
 62
     7
  6
Continuous
370
    -3
390
F
  0
LAYER
  5
8B
102
{ACAD_XDICTIONARY
360
11F8
102
}
330
2
100
AcDbSymbolTableRecord
100
AcDbLayerTableRecord
  2
95
 70
     0
 62
     7
  6
Continuous
370
    -3
390
F
  0
LAYER
  5
8C
102
{ACAD_XDICTIONARY
360
11FA
102
}
330
2
100
AcDbSymbolTableRecord
100
AcDbLayerTableRecord
  2
96
 70
     0
 62
     7
  6
Continuous
370
    -3
390
F
  0
LAYER
  5
8D
102
{ACAD_XDICTIONARY
360
11FC
102
}
330
2
100
AcDbSymbolTableRecord
100
AcDbLayerTableRecord
  2
97
 70
     0
 62
     7
  6
Continuous
370
    -3
390
F
  0
LAYER
  5
8E
102
{ACAD_XDICTIONARY
360
11FE
102
}
330
2
100
AcDbSymbolTableRecord
100
AcDbLayerTableRecord
  2
98
 70
     0
 62
     7
  6
Continuous
370
    -3
390
F
  0
LAYER
  5
8F
102
{ACAD_XDICTIONARY
360
1200
102
}
330
2
100
AcDbSymbolTableRecord
100
AcDbLayerTableRecord
  2
99
 70
     0
 62
     7
  6
Continuous
370
    -3
390
F
  0
LAYER
  5
90
102
{ACAD_XDICTIONARY
360
1202
102
}
330
2
100
AcDbSymbolTableRecord
100
AcDbLayerTableRecord
  2
100
 70
     0
 62
     7
  6
Continuous
370
    -3
390
F
  0
LAYER
  5
91
102
{ACAD_XDICTIONARY
360
1204
102
}
330
2
100
AcDbSymbolTableRecord
100
AcDbLayerTableRecord
  2
101
 70
     0
 62
     7
  6
Continuous
370
    -3
390
F
  0
LAYER
  5
92
102
{ACAD_XDICTIONARY
360
1206
102
}
330
2
100
AcDbSymbolTableRecord
100
AcDbLayerTableRecord
  2
102
 70
     0
 62
     7
  6
Continuous
370
    -3
390
F
  0
LAYER
  5
93
102
{ACAD_XDICTIONARY
360
1208
102
}
330
2
100
AcDbSymbolTableRecord
100
AcDbLayerTableRecord
  2
103
 70
     0
 62
     7
  6
Continuous
370
    -3
390
F
  0
LAYER
  5
94
102
{ACAD_XDICTIONARY
360
120A
102
}
330
2
100
AcDbSymbolTableRecord
100
AcDbLayerTableRecord
  2
104
 70
     0
 62
     7
  6
Continuous
370
    -3
390
F
  0
LAYER
  5
95
102
{ACAD_XDICTIONARY
360
120C
102
}
330
2
100
AcDbSymbolTableRecord
100
AcDbLayerTableRecord
  2
105
 70
     0
 62
     7
  6
Continuous
370
    -3
390
F
  0
LAYER
  5
96
102
{ACAD_XDICTIONARY
360
120E
102
}
330
2
100
AcDbSymbolTableRecord
100
AcDbLayerTableRecord
  2
106
 70
     0
 62
     7
  6
Continuous
370
    -3
390
F
  0
LAYER
  5
97
102
{ACAD_XDICTIONARY
360
1210
102
}
330
2
100
AcDbSymbolTableRecord
100
AcDbLayerTableRecord
  2
107
 70
     0
 62
     7
  6
Continuous
370
    -3
390
F
  0
LAYER
  5
98
102
{ACAD_XDICTIONARY
360
1212
102
}
330
2
100
AcDbSymbolTableRecord
100
AcDbLayerTableRecord
  2
108
 70
     0
 62
     7
  6
Continuous
370
    -3
390
F
  0
LAYER
  5
99
102
{ACAD_XDICTIONARY
360
1214
102
}
330
2
100
AcDbSymbolTableRecord
100
AcDbLayerTableRecord
  2
109
 70
     0
 62
     7
  6
Continuous
370
    -3
390
F
  0
LAYER
  5
9A
102
{ACAD_XDICTIONARY
360
1216
102
}
330
2
100
AcDbSymbolTableRecord
100
AcDbLayerTableRecord
  2
110
 70
     0
 62
     7
  6
Continuous
370
    -3
390
F
  0
LAYER
  5
9B
102
{ACAD_XDICTIONARY
360
1218
102
}
330
2
100
AcDbSymbolTableRecord
100
AcDbLayerTableRecord
  2
111
 70
     0
 62
     7
  6
Continuous
370
    -3
390
F
  0
LAYER
  5
9C
102
{ACAD_XDICTIONARY
360
121A
102
}
330
2
100
AcDbSymbolTableRecord
100
AcDbLayerTableRecord
  2
112
 70
     0
 62
     7
  6
Continuous
370
    -3
390
F
  0
LAYER
  5
9D
102
{ACAD_XDICTIONARY
360
121C
102
}
330
2
100
AcDbSymbolTableRecord
100
AcDbLayerTableRecord
  2
113
 70
     0
 62
     7
  6
Continuous
370
    -3
390
F
  0
LAYER
  5
9E
102
{ACAD_XDICTIONARY
360
121E
102
}
330
2
100
AcDbSymbolTableRecord
100
AcDbLayerTableRecord
  2
114
 70
     0
 62
     7
  6
Continuous
370
    -3
390
F
  0
LAYER
  5
9F
102
{ACAD_XDICTIONARY
360
1220
102
}
330
2
100
AcDbSymbolTableRecord
100
AcDbLayerTableRecord
  2
115
 70
     0
 62
     7
  6
Continuous
370
    -3
390
F
  0
LAYER
  5
A0
102
{ACAD_XDICTIONARY
360
1222
102
}
330
2
100
AcDbSymbolTableRecord
100
AcDbLayerTableRecord
  2
116
 70
     0
 62
     7
  6
Continuous
370
    -3
390
F
  0
LAYER
  5
A1
102
{ACAD_XDICTIONARY
360
1224
102
}
330
2
100
AcDbSymbolTableRecord
100
AcDbLayerTableRecord
  2
117
 70
     0
 62
     7
  6
Continuous
370
    -3
390
F
  0
LAYER
  5
A2
102
{ACAD_XDICTIONARY
360
1226
102
}
330
2
100
AcDbSymbolTableRecord
100
AcDbLayerTableRecord
  2
118
 70
     0
 62
     7
  6
Continuous
370
    -3
390
F
  0
LAYER
  5
A3
102
{ACAD_XDICTIONARY
360
1228
102
}
330
2
100
AcDbSymbolTableRecord
100
AcDbLayerTableRecord
  2
119
 70
     0
 62
     7
  6
Continuous
370
    -3
390
F
  0
LAYER
  5
A4
102
{ACAD_XDICTIONARY
360
122A
102
}
330
2
100
AcDbSymbolTableRecord
100
AcDbLayerTableRecord
  2
120
 70
     0
 62
     7
  6
Continuous
370
    -3
390
F
  0
LAYER
  5
A5
102
{ACAD_XDICTIONARY
360
122C
102
}
330
2
100
AcDbSymbolTableRecord
100
AcDbLayerTableRecord
  2
121
 70
     0
 62
     7
  6
Continuous
370
    -3
390
F
  0
LAYER
  5
A6
102
{ACAD_XDICTIONARY
360
122E
102
}
330
2
100
AcDbSymbolTableRecord
100
AcDbLayerTableRecord
  2
122
 70
     0
 62
     7
  6
Continuous
370
    -3
390
F
  0
LAYER
  5
A7
102
{ACAD_XDICTIONARY
360
1230
102
}
330
2
100
AcDbSymbolTableRecord
100
AcDbLayerTableRecord
  2
123
 70
     0
 62
     7
  6
Continuous
370
    -3
390
F
  0
LAYER
  5
A8
102
{ACAD_XDICTIONARY
360
1232
102
}
330
2
100
AcDbSymbolTableRecord
100
AcDbLayerTableRecord
  2
124
 70
     0
 62
     7
  6
Continuous
370
    -3
390
F
  0
LAYER
  5
A9
102
{ACAD_XDICTIONARY
360
1234
102
}
330
2
100
AcDbSymbolTableRecord
100
AcDbLayerTableRecord
  2
125
 70
     0
 62
     7
  6
Continuous
370
    -3
390
F
  0
LAYER
  5
AA
102
{ACAD_XDICTIONARY
360
1236
102
}
330
2
100
AcDbSymbolTableRecord
100
AcDbLayerTableRecord
  2
126
 70
     0
 62
     7
  6
Continuous
370
    -3
390
F
  0
LAYER
  5
AB
102
{ACAD_XDICTIONARY
360
1238
102
}
330
2
100
AcDbSymbolTableRecord
100
AcDbLayerTableRecord
  2
127
 70
     0
 62
     7
  6
Continuous
370
    -3
390
F
  0
LAYER
  5
AC
102
{ACAD_XDICTIONARY
360
123A
102
}
330
2
100
AcDbSymbolTableRecord
100
AcDbLayerTableRecord
  2
128
 70
     0
 62
     7
  6
Continuous
370
    -3
390
F
  0
LAYER
  5
AD
102
{ACAD_XDICTIONARY
360
123C
102
}
330
2
100
AcDbSymbolTableRecord
100
AcDbLayerTableRecord
  2
129
 70
     0
 62
     7
  6
Continuous
370
    -3
390
F
  0
LAYER
  5
AE
102
{ACAD_XDICTIONARY
360
123E
102
}
330
2
100
AcDbSymbolTableRecord
100
AcDbLayerTableRecord
  2
130
 70
     0
 62
     7
  6
Continuous
370
    -3
390
F
  0
LAYER
  5
AF
102
{ACAD_XDICTIONARY
360
1240
102
}
330
2
100
AcDbSymbolTableRecord
100
AcDbLayerTableRecord
  2
131
 70
     0
 62
     7
  6
Continuous
370
    -3
390
F
  0
LAYER
  5
B0
102
{ACAD_XDICTIONARY
360
1242
102
}
330
2
100
AcDbSymbolTableRecord
100
AcDbLayerTableRecord
  2
132
 70
     0
 62
     7
  6
Continuous
370
    -3
390
F
  0
LAYER
  5
B1
102
{ACAD_XDICTIONARY
360
1244
102
}
330
2
100
AcDbSymbolTableRecord
100
AcDbLayerTableRecord
  2
133
 70
     0
 62
     7
  6
Continuous
370
    -3
390
F
  0
LAYER
  5
B2
102
{ACAD_XDICTIONARY
360
1246
102
}
330
2
100
AcDbSymbolTableRecord
100
AcDbLayerTableRecord
  2
134
 70
     0
 62
     7
  6
Continuous
370
    -3
390
F
  0
LAYER
  5
B3
102
{ACAD_XDICTIONARY
360
1248
102
}
330
2
100
AcDbSymbolTableRecord
100
AcDbLayerTableRecord
  2
135
 70
     0
 62
     7
  6
Continuous
370
    -3
390
F
  0
LAYER
  5
B4
102
{ACAD_XDICTIONARY
360
124A
102
}
330
2
100
AcDbSymbolTableRecord
100
AcDbLayerTableRecord
  2
136
 70
     0
 62
     7
  6
Continuous
370
    -3
390
F
  0
LAYER
  5
B5
102
{ACAD_XDICTIONARY
360
124C
102
}
330
2
100
AcDbSymbolTableRecord
100
AcDbLayerTableRecord
  2
137
 70
     0
 62
     7
  6
Continuous
370
    -3
390
F
  0
LAYER
  5
B6
102
{ACAD_XDICTIONARY
360
124E
102
}
330
2
100
AcDbSymbolTableRecord
100
AcDbLayerTableRecord
  2
138
 70
     0
 62
     7
  6
Continuous
370
    -3
390
F
  0
LAYER
  5
B7
102
{ACAD_XDICTIONARY
360
1250
102
}
330
2
100
AcDbSymbolTableRecord
100
AcDbLayerTableRecord
  2
139
 70
     0
 62
     7
  6
Continuous
370
    -3
390
F
  0
LAYER
  5
B8
102
{ACAD_XDICTIONARY
360
1252
102
}
330
2
100
AcDbSymbolTableRecord
100
AcDbLayerTableRecord
  2
140
 70
     0
 62
     7
  6
Continuous
370
    -3
390
F
  0
LAYER
  5
B9
102
{ACAD_XDICTIONARY
360
1254
102
}
330
2
100
AcDbSymbolTableRecord
100
AcDbLayerTableRecord
  2
141
 70
     0
 62
     7
  6
Continuous
370
    -3
390
F
  0
LAYER
  5
BA
102
{ACAD_XDICTIONARY
360
1256
102
}
330
2
100
AcDbSymbolTableRecord
100
AcDbLayerTableRecord
  2
142
 70
     0
 62
     7
  6
Continuous
370
    -3
390
F
  0
LAYER
  5
BB
102
{ACAD_XDICTIONARY
360
1258
102
}
330
2
100
AcDbSymbolTableRecord
100
AcDbLayerTableRecord
  2
143
 70
     0
 62
     7
  6
Continuous
370
    -3
390
F
  0
LAYER
  5
BC
102
{ACAD_XDICTIONARY
360
125A
102
}
330
2
100
AcDbSymbolTableRecord
100
AcDbLayerTableRecord
  2
144
 70
     0
 62
     7
  6
Continuous
370
    -3
390
F
  0
LAYER
  5
BD
102
{ACAD_XDICTIONARY
360
125C
102
}
330
2
100
AcDbSymbolTableRecord
100
AcDbLayerTableRecord
  2
145
 70
     0
 62
     7
  6
Continuous
370
    -3
390
F
  0
LAYER
  5
BE
102
{ACAD_XDICTIONARY
360
125E
102
}
330
2
100
AcDbSymbolTableRecord
100
AcDbLayerTableRecord
  2
146
 70
     0
 62
     7
  6
Continuous
370
    -3
390
F
  0
LAYER
  5
BF
102
{ACAD_XDICTIONARY
360
1260
102
}
330
2
100
AcDbSymbolTableRecord
100
AcDbLayerTableRecord
  2
147
 70
     0
 62
     7
  6
Continuous
370
    -3
390
F
  0
LAYER
  5
C0
102
{ACAD_XDICTIONARY
360
1262
102
}
330
2
100
AcDbSymbolTableRecord
100
AcDbLayerTableRecord
  2
148
 70
     0
 62
     7
  6
Continuous
370
    -3
390
F
  0
LAYER
  5
C1
102
{ACAD_XDICTIONARY
360
1264
102
}
330
2
100
AcDbSymbolTableRecord
100
AcDbLayerTableRecord
  2
149
 70
     0
 62
     7
  6
Continuous
370
    -3
390
F
  0
LAYER
  5
C2
102
{ACAD_XDICTIONARY
360
1266
102
}
330
2
100
AcDbSymbolTableRecord
100
AcDbLayerTableRecord
  2
150
 70
     0
 62
     7
  6
Continuous
370
    -3
390
F
  0
LAYER
  5
C3
102
{ACAD_XDICTIONARY
360
1268
102
}
330
2
100
AcDbSymbolTableRecord
100
AcDbLayerTableRecord
  2
151
 70
     0
 62
     7
  6
Continuous
370
    -3
390
F
  0
LAYER
  5
C4
102
{ACAD_XDICTIONARY
360
126A
102
}
330
2
100
AcDbSymbolTableRecord
100
AcDbLayerTableRecord
  2
152
 70
     0
 62
     7
  6
Continuous
370
    -3
390
F
  0
LAYER
  5
C5
102
{ACAD_XDICTIONARY
360
126C
102
}
330
2
100
AcDbSymbolTableRecord
100
AcDbLayerTableRecord
  2
153
 70
     0
 62
     7
  6
Continuous
370
    -3
390
F
  0
LAYER
  5
C6
102
{ACAD_XDICTIONARY
360
126E
102
}
330
2
100
AcDbSymbolTableRecord
100
AcDbLayerTableRecord
  2
154
 70
     0
 62
     7
  6
Continuous
370
    -3
390
F
  0
LAYER
  5
C7
102
{ACAD_XDICTIONARY
360
1270
102
}
330
2
100
AcDbSymbolTableRecord
100
AcDbLayerTableRecord
  2
155
 70
     0
 62
     7
  6
Continuous
370
    -3
390
F
  0
LAYER
  5
C8
102
{ACAD_XDICTIONARY
360
1272
102
}
330
2
100
AcDbSymbolTableRecord
100
AcDbLayerTableRecord
  2
156
 70
     0
 62
     7
  6
Continuous
370
    -3
390
F
  0
LAYER
  5
C9
102
{ACAD_XDICTIONARY
360
1274
102
}
330
2
100
AcDbSymbolTableRecord
100
AcDbLayerTableRecord
  2
157
 70
     0
 62
     7
  6
Continuous
370
    -3
390
F
  0
LAYER
  5
CA
102
{ACAD_XDICTIONARY
360
1276
102
}
330
2
100
AcDbSymbolTableRecord
100
AcDbLayerTableRecord
  2
158
 70
     0
 62
     7
  6
Continuous
370
    -3
390
F
  0
LAYER
  5
CB
102
{ACAD_XDICTIONARY
360
1278
102
}
330
2
100
AcDbSymbolTableRecord
100
AcDbLayerTableRecord
  2
159
 70
     0
 62
     7
  6
Continuous
370
    -3
390
F
  0
LAYER
  5
CC
102
{ACAD_XDICTIONARY
360
127A
102
}
330
2
100
AcDbSymbolTableRecord
100
AcDbLayerTableRecord
  2
160
 70
     0
 62
     7
  6
Continuous
370
    -3
390
F
  0
LAYER
  5
CD
102
{ACAD_XDICTIONARY
360
127C
102
}
330
2
100
AcDbSymbolTableRecord
100
AcDbLayerTableRecord
  2
161
 70
     0
 62
     7
  6
Continuous
370
    -3
390
F
  0
LAYER
  5
CE
102
{ACAD_XDICTIONARY
360
127E
102
}
330
2
100
AcDbSymbolTableRecord
100
AcDbLayerTableRecord
  2
162
 70
     0
 62
     7
  6
Continuous
370
    -3
390
F
  0
LAYER
  5
CF
102
{ACAD_XDICTIONARY
360
1280
102
}
330
2
100
AcDbSymbolTableRecord
100
AcDbLayerTableRecord
  2
163
 70
     0
 62
     7
  6
Continuous
370
    -3
390
F
  0
LAYER
  5
D0
102
{ACAD_XDICTIONARY
360
1282
102
}
330
2
100
AcDbSymbolTableRecord
100
AcDbLayerTableRecord
  2
164
 70
     0
 62
     7
  6
Continuous
370
    -3
390
F
  0
LAYER
  5
D1
102
{ACAD_XDICTIONARY
360
1284
102
}
330
2
100
AcDbSymbolTableRecord
100
AcDbLayerTableRecord
  2
165
 70
     0
 62
     7
  6
Continuous
370
    -3
390
F
  0
LAYER
  5
D2
102
{ACAD_XDICTIONARY
360
1286
102
}
330
2
100
AcDbSymbolTableRecord
100
AcDbLayerTableRecord
  2
166
 70
     0
 62
     7
  6
Continuous
370
    -3
390
F
  0
LAYER
  5
D3
102
{ACAD_XDICTIONARY
360
1288
102
}
330
2
100
AcDbSymbolTableRecord
100
AcDbLayerTableRecord
  2
167
 70
     0
 62
     7
  6
Continuous
370
    -3
390
F
  0
LAYER
  5
D4
102
{ACAD_XDICTIONARY
360
128A
102
}
330
2
100
AcDbSymbolTableRecord
100
AcDbLayerTableRecord
  2
168
 70
     0
 62
     7
  6
Continuous
370
    -3
390
F
  0
LAYER
  5
D5
102
{ACAD_XDICTIONARY
360
128C
102
}
330
2
100
AcDbSymbolTableRecord
100
AcDbLayerTableRecord
  2
169
 70
     0
 62
     7
  6
Continuous
370
    -3
390
F
  0
LAYER
  5
D6
102
{ACAD_XDICTIONARY
360
128E
102
}
330
2
100
AcDbSymbolTableRecord
100
AcDbLayerTableRecord
  2
170
 70
     0
 62
     7
  6
Continuous
370
    -3
390
F
  0
LAYER
  5
D7
102
{ACAD_XDICTIONARY
360
1290
102
}
330
2
100
AcDbSymbolTableRecord
100
AcDbLayerTableRecord
  2
171
 70
     0
 62
     7
  6
Continuous
370
    -3
390
F
  0
LAYER
  5
D8
102
{ACAD_XDICTIONARY
360
1292
102
}
330
2
100
AcDbSymbolTableRecord
100
AcDbLayerTableRecord
  2
172
 70
     0
 62
     7
  6
Continuous
370
    -3
390
F
  0
LAYER
  5
D9
102
{ACAD_XDICTIONARY
360
1294
102
}
330
2
100
AcDbSymbolTableRecord
100
AcDbLayerTableRecord
  2
173
 70
     0
 62
     7
  6
Continuous
370
    -3
390
F
  0
LAYER
  5
DA
102
{ACAD_XDICTIONARY
360
1296
102
}
330
2
100
AcDbSymbolTableRecord
100
AcDbLayerTableRecord
  2
174
 70
     0
 62
     7
  6
Continuous
370
    -3
390
F
  0
LAYER
  5
DB
102
{ACAD_XDICTIONARY
360
1298
102
}
330
2
100
AcDbSymbolTableRecord
100
AcDbLayerTableRecord
  2
175
 70
     0
 62
     7
  6
Continuous
370
    -3
390
F
  0
LAYER
  5
DC
102
{ACAD_XDICTIONARY
360
129A
102
}
330
2
100
AcDbSymbolTableRecord
100
AcDbLayerTableRecord
  2
176
 70
     0
 62
     7
  6
Continuous
370
    -3
390
F
  0
LAYER
  5
DD
102
{ACAD_XDICTIONARY
360
129C
102
}
330
2
100
AcDbSymbolTableRecord
100
AcDbLayerTableRecord
  2
177
 70
     0
 62
     7
  6
Continuous
370
    -3
390
F
  0
LAYER
  5
DE
102
{ACAD_XDICTIONARY
360
129E
102
}
330
2
100
AcDbSymbolTableRecord
100
AcDbLayerTableRecord
  2
178
 70
     0
 62
     7
  6
Continuous
370
    -3
390
F
  0
LAYER
  5
DF
102
{ACAD_XDICTIONARY
360
12A0
102
}
330
2
100
AcDbSymbolTableRecord
100
AcDbLayerTableRecord
  2
179
 70
     0
 62
     7
  6
Continuous
370
    -3
390
F
  0
LAYER
  5
E0
102
{ACAD_XDICTIONARY
360
12A2
102
}
330
2
100
AcDbSymbolTableRecord
100
AcDbLayerTableRecord
  2
180
 70
     0
 62
     7
  6
Continuous
370
    -3
390
F
  0
LAYER
  5
E1
102
{ACAD_XDICTIONARY
360
12A4
102
}
330
2
100
AcDbSymbolTableRecord
100
AcDbLayerTableRecord
  2
DRAFTING_HIDDEN_ENTITIES
 70
     1
 62
     7
  6
Continuous
370
    -3
390
F
  0
LAYER
  5
BDD
330
2
100
AcDbSymbolTableRecord
100
AcDbLayerTableRecord
  2
Defpoints
 70
     0
 62
     7
  6
Continuous
290
     0
370
    -3
390
F
  0
LAYER
  5
D98
102
{ACAD_XDICTIONARY
360
12A6
102
}
330
2
100
AcDbSymbolTableRecord
100
AcDbLayerTableRecord
  2
DESIGN
 70
     0
 62
     7
  6
Continuous
370
    -3
390
F
  0
ENDTAB
  0
TABLE
  2
STYLE
  5
3
330
0
100
AcDbSymbolTable
 70
     1
  0
STYLE
  5
11
330
3
100
AcDbSymbolTableRecord
100
AcDbTextStyleTableRecord
  2
STANDARD
 70
     0
 40
0.0
 41
1.0
 50
0.0
 71
     0
 42
1.0
  3
monotxt.shx
  4
bigfont.shx
  0
ENDTAB
  0
TABLE
  2
VIEW
  5
6
330
0
100
AcDbSymbolTable
 70
     0
  0
ENDTAB
  0
TABLE
  2
UCS
  5
7
330
0
100
AcDbSymbolTable
 70
     0
  0
ENDTAB
  0
TABLE
  2
APPID
  5
9
330
0
100
AcDbSymbolTable
 70
     7
  0
APPID
  5
12
330
9
100
AcDbSymbolTableRecord
100
AcDbRegAppTableRecord
  2
ACAD
 70
     0
  0
APPID
  5
BCC
330
9
100
AcDbSymbolTableRecord
100
AcDbRegAppTableRecord
  2
ACAD_PSEXT
 70
     0
  0
APPID
  5
D93
330
9
100
AcDbSymbolTableRecord
100
AcDbRegAppTableRecord
  2
ACAD_MLEADERVER
 70
     0
  0
APPID
  5
F17
330
9
100
AcDbSymbolTableRecord
100
AcDbRegAppTableRecord
  2
ACAD_DSTYLE_DIMJOGGED_JOGANGLE_SYMBOL
 70
     0
  0
APPID
  5
1384
330
9
100
AcDbSymbolTableRecord
100
AcDbRegAppTableRecord
  2
ACAD_EXEMPT_FROM_CAD_STANDARDS
 70
     0
  0
APPID
  5
1402
330
9
100
AcDbSymbolTableRecord
100
AcDbRegAppTableRecord
  2
ACAD_DSTYLE_DIMJAG
 70
     0
  0
APPID
  5
1403
330
9
100
AcDbSymbolTableRecord
100
AcDbRegAppTableRecord
  2
ACAD_DSTYLE_DIMTALN
 70
     0
  0
ENDTAB
  0
TABLE
  2
DIMSTYLE
  5
A
330
0
100
AcDbSymbolTable
 70
    22
100
AcDbDimStyleTable
 71
     2
340
D99
340
E2
  0
DIMSTYLE
105
E2
330
A
100
AcDbSymbolTableRecord
100
AcDbDimStyleTableRecord
  2
DSTYLE1
 70
     0
 41
0.125
 44
0.08
 45
0.001
 47
0.005
 48
0.005
 73
     0
 74
     0
 75
     1
 76
     1
 78
     7
140
0.37333333
144
5.333333299999999
147
0.0625
271
     3
272
     3
274
     0
279
     2
340
11
  0
DIMSTYLE
105
E3
330
A
100
AcDbSymbolTableRecord
100
AcDbDimStyleTableRecord
  2
DSTYLE2
 70
     0
 41
0.125
 44
0.08
 45
0.001
 47
0.005
 48
0.005
 73
     0
 74
     0
 75
     1
 76
     1
 78
     7
140
0.07
147
0.0625
271
     3
272
     3
274
     0
279
     2
340
11
  0
DIMSTYLE
105
E4
330
A
100
AcDbSymbolTableRecord
100
AcDbDimStyleTableRecord
  2
DSTYLE3
 70
     0
 41
0.15
 42
0.125
 44
0.0625
 45
0.001
 47
0.005
 48
0.005
 75
     1
 78
     7
140
0.5333333300000001
144
5.333333299999999
147
0.0625
271
     3
272
     3
274
     0
279
     2
340
11
  0
DIMSTYLE
105
E5
330
A
100
AcDbSymbolTableRecord
100
AcDbDimStyleTableRecord
  2
DSTYLE4
 70
     0
 41
0.1
 44
0.08
 45
0.001
 47
0.005
 48
0.005
 73
     0
 74
     0
 75
     1
 76
     1
 78
     7
140
0.128
144
1.6
147
0.0625
271
     3
272
     3
274
     0
279
     2
340
11
  0
DIMSTYLE
105
E6
330
A
100
AcDbSymbolTableRecord
100
AcDbDimStyleTableRecord
  2
DSTYLE5
 70
     0
 41
0.15
 42
0.075
 44
0.15
 45
0.001
 47
0.005
 48
0.005
 75
     1
 78
     7
140
0.5333333300000001
144
5.333333299999999
147
0.075
271
     3
272
     3
274
     0
279
     2
340
11
  0
DIMSTYLE
105
E7
330
A
100
AcDbSymbolTableRecord
100
AcDbDimStyleTableRecord
  2
DSTYLE6
 70
     0
 41
0.15
 42
0.125
 44
0.15
 45
0.001
 47
0.0625
 48
0.005
 78
     7
140
0.5333333300000001
143
1.0
144
5.333333299999999
147
0.03125
170
     1
271
     3
272
     3
274
     0
279
     2
340
11
  0
DIMSTYLE
105
E8
330
A
100
AcDbSymbolTableRecord
100
AcDbDimStyleTableRecord
  2
DSTYLE7
 70
     0
 41
0.15
 42
0.125
 44
0.15
 45
0.001
 47
0.0625
 48
0.005
 76
     1
 78
     7
140
0.5333333300000001
143
1.0
144
5.333333299999999
147
0.03125
170
     1
271
     3
272
     3
274
     0
279
     2
340
11
  0
DIMSTYLE
105
E9
330
A
100
AcDbSymbolTableRecord
100
AcDbDimStyleTableRecord
  2
DSTYLE8
 70
     0
 41
0.15
 42
0.125
 44
0.15
 45
0.001
 47
0.0625
 48
0.005
 75
     1
 78
     7
140
0.5333333300000001
143
1.0
144
5.333333299999999
147
0.03125
170
     1
271
     3
272
     3
274
     0
279
     2
340
11
  0
DIMSTYLE
105
EA
330
A
100
AcDbSymbolTableRecord
100
AcDbDimStyleTableRecord
  2
DSTYLE9
 70
     0
 41
0.15
 44
0.125
 45
0.001
 47
0.005
 48
0.005
 75
     1
 78
     7
140
0.5333333300000001
144
5.333333299999999
147
0.0625
271
     3
272
     3
274
     0
279
     2
340
11
  0
DIMSTYLE
105
EB
330
A
100
AcDbSymbolTableRecord
100
AcDbDimStyleTableRecord
  2
DSTYLE10
 70
     0
 41
0.15
 42
0.1
 44
0.1
 45
0.001
 47
0.0625
 48
0.005
 78
     7
140
0.5333333300000001
143
1.0
144
5.333333299999999
147
0.03125
170
     1
271
     3
272
     3
274
     0
279
     2
340
11
  0
DIMSTYLE
105
EC
330
A
100
AcDbSymbolTableRecord
100
AcDbDimStyleTableRecord
  2
DSTYLE11
 70
     0
 41
0.15
 42
0.125
 44
0.15
 45
0.001
 47
0.0625
 48
0.005
 75
     1
 76
     1
 78
     7
140
0.5333333300000001
143
1.0
144
5.333333299999999
147
0.03125
170
     1
271
     3
272
     3
274
     0
279
     2
340
11
  0
DIMSTYLE
105
ED
330
A
100
AcDbSymbolTableRecord
100
AcDbDimStyleTableRecord
  2
DSTYLE12
 70
     0
 41
0.15
 42
0.125
 44
0.0625
 45
0.001
 47
0.005
 48
0.005
 78
     7
140
0.5333333300000001
143
1.0
144
5.333333299999999
147
0.03125
170
     1
271
     3
272
     3
274
     0
279
     2
340
11
  0
DIMSTYLE
105
EE
330
A
100
AcDbSymbolTableRecord
100
AcDbDimStyleTableRecord
  2
DSTYLE13
 70
     0
 41
0.1
 42
0.046875
 44
0.078125
 45
0.001
 47
0.005
 48
0.005
 78
     7
140
0.128
144
1.6
147
0.0390625
271
     3
272
     3
274
     0
279
     2
340
11
  0
DIMSTYLE
105
EF
330
A
100
AcDbSymbolTableRecord
100
AcDbDimStyleTableRecord
  2
DSTYLE14
 70
     0
 41
0.1
 42
0.046875
 44
0.078125
 45
0.1
 47
0.005
 48
0.005
 76
     1
 78
     7
140
0.128
144
1.6
147
0.0390625
271
     3
272
     3
274
     0
279
     2
340
11
  0
DIMSTYLE
105
F0
330
A
100
AcDbSymbolTableRecord
100
AcDbDimStyleTableRecord
  2
DSTYLE15
 70
     0
 41
0.1
 42
0.046875
 44
0.078125
 45
0.01
 47
0.005
 48
0.005
 78
     3
140
0.128
144
1.6
147
0.0390625
271
     3
272
     3
274
     0
279
     2
340
11
  0
DIMSTYLE
105
F1
330
A
100
AcDbSymbolTableRecord
100
AcDbDimStyleTableRecord
  2
DSTYLE16
 70
     0
 41
0.1
 42
0.046875
 44
0.078125
 45
0.001
 47
0.005
 48
0.005
 75
     1
 78
     7
140
0.128
144
1.6
147
0.0390625
271
     3
272
     3
274
     0
279
     2
340
11
  0
DIMSTYLE
105
F2
330
A
100
AcDbSymbolTableRecord
100
AcDbDimStyleTableRecord
  2
DSTYLE17
 70
     0
 41
0.1
 42
0.046875
 44
0.078125
 45
0.001
 47
0.005
 48
0.005
 78
     3
140
0.128
144
1.6
147
0.0390625
271
     3
272
     3
274
     0
279
     2
340
11
  0
DIMSTYLE
105
F3
330
A
100
AcDbSymbolTableRecord
100
AcDbDimStyleTableRecord
  2
DSTYLE18
 70
     0
 41
0.1
 42
0.046875
 44
0.078125
 45
0.001
 47
0.005
 48
0.005
 75
     1
 78
     3
140
0.128
144
1.6
147
0.0390625
172
     1
271
     3
272
     3
274
     0
279
     2
340
11
  0
DIMSTYLE
105
F4
330
A
100
AcDbSymbolTableRecord
100
AcDbDimStyleTableRecord
  2
DSTYLE19
 70
     0
 41
0.1
 42
0.046875
 44
0.078125
 45
0.001
 47
0.005
 48
0.005
 75
     1
 78
     3
140
0.128
144
1.6
147
0.0390625
271
     3
272
     3
274
     0
279
     2
340
11
  0
DIMSTYLE
105
F5
330
A
100
AcDbSymbolTableRecord
100
AcDbDimStyleTableRecord
  2
DSTYLE20
 70
     0
 41
0.1
 42
0.046875
 44
0.078125
 45
0.1
 47
0.005
 48
0.005
 78
     7
140
0.128
144
1.6
147
0.0390625
271
     3
272
     3
274
     0
279
     2
340
11
  0
DIMSTYLE
105
F6
330
A
100
AcDbSymbolTableRecord
100
AcDbDimStyleTableRecord
  2
DSTYLE21
 70
     0
 41
0.1
 42
0.0390625
 44
0.078125
 47
1.0
 48
1.0
 76
     1
 78
     3
140
0.128
143
1.0
144
1.6
147
0.0390625
271
     3
272
     3
274
     0
279
     2
340
11
  0
DIMSTYLE
105
D99
330
A
100
AcDbSymbolTableRecord
100
AcDbDimStyleTableRecord
  2
Standard
 70
     0
 41
1.0
 78
     8
140
1.0
147
0.2
271
     2
272
     2
340
11
1001
ACAD_DSTYLE_DIMJAG
1070
   388
1040
1.5
1001
ACAD_DSTYLE_DIMTALN
1070
   392
1070
     0
  0
ENDTAB
  0
TABLE
  2
BLOCK_RECORD
  5
1
330
0
100
AcDbSymbolTable
 70
    50
  0
BLOCK_RECORD
  5
22
102
{ACAD_XDICTIONARY
360
B9C
102
}
330
1
100
AcDbSymbolTableRecord
100
AcDbBlockTableRecord
  2
*Model_Space
340
25
  0
BLOCK_RECORD
  5
1E
330
1
100
AcDbSymbolTableRecord
100
AcDbBlockTableRecord
  2
*Paper_Space
340
21
  0
BLOCK_RECORD
  5
FF
330
1
100
AcDbSymbolTableRecord
100
AcDbBlockTableRecord
  2
*U0
340
0
102
{BLKREFS
331
109
102
}
  0
BLOCK_RECORD
  5
107
330
1
100
AcDbSymbolTableRecord
100
AcDbBlockTableRecord
  2
3
340
0
  0
BLOCK_RECORD
  5
119
330
1
100
AcDbSymbolTableRecord
100
AcDbBlockTableRecord
  2
ELITE
340
0
  0
BLOCK_RECORD
  5
11C
330
1
100
AcDbSymbolTableRecord
100
AcDbBlockTableRecord
  2
*U3
340
0
102
{BLKREFS
331
11D
102
}
  0
BLOCK_RECORD
  5
11E
330
1
100
AcDbSymbolTableRecord
100
AcDbBlockTableRecord
  2
*U4
340
0
102
{BLKREFS
331
11F
102
}
  0
BLOCK_RECORD
  5
121
330
1
100
AcDbSymbolTableRecord
100
AcDbBlockTableRecord
  2
*U5
340
0
102
{BLKREFS
331
122
102
}
  0
BLOCK_RECORD
  5
125
330
1
100
AcDbSymbolTableRecord
100
AcDbBlockTableRecord
  2
*U6
340
0
102
{BLKREFS
331
126
102
}
  0
BLOCK_RECORD
  5
127
330
1
100
AcDbSymbolTableRecord
100
AcDbBlockTableRecord
  2
*U7
340
0
102
{BLKREFS
331
128
102
}
  0
BLOCK_RECORD
  5
129
330
1
100
AcDbSymbolTableRecord
100
AcDbBlockTableRecord
  2
*U8
340
0
102
{BLKREFS
331
12A
102
}
  0
BLOCK_RECORD
  5
12B
330
1
100
AcDbSymbolTableRecord
100
AcDbBlockTableRecord
  2
*U9
340
0
102
{BLKREFS
331
12C
102
}
  0
BLOCK_RECORD
  5
12D
330
1
100
AcDbSymbolTableRecord
100
AcDbBlockTableRecord
  2
*U10
340
0
102
{BLKREFS
331
12E
102
}
  0
BLOCK_RECORD
  5
12F
330
1
100
AcDbSymbolTableRecord
100
AcDbBlockTableRecord
  2
*U11
340
0
102
{BLKREFS
331
130
102
}
  0
BLOCK_RECORD
  5
132
330
1
100
AcDbSymbolTableRecord
100
AcDbBlockTableRecord
  2
*U12
340
0
102
{BLKREFS
331
133
102
}
  0
BLOCK_RECORD
  5
134
330
1
100
AcDbSymbolTableRecord
100
AcDbBlockTableRecord
  2
*U13
340
0
102
{BLKREFS
331
135
102
}
  0
BLOCK_RECORD
  5
13C
330
1
100
AcDbSymbolTableRecord
100
AcDbBlockTableRecord
  2
*U14
340
0
102
{BLKREFS
331
13D
102
}
  0
BLOCK_RECORD
  5
13E
330
1
100
AcDbSymbolTableRecord
100
AcDbBlockTableRecord
  2
*U15
340
0
102
{BLKREFS
331
13F
102
}
  0
BLOCK_RECORD
  5
141
330
1
100
AcDbSymbolTableRecord
100
AcDbBlockTableRecord
  2
*U16
340
0
102
{BLKREFS
331
142
102
}
  0
BLOCK_RECORD
  5
145
330
1
100
AcDbSymbolTableRecord
100
AcDbBlockTableRecord
  2
*U17
340
0
102
{BLKREFS
331
146
102
}
  0
BLOCK_RECORD
  5
149
330
1
100
AcDbSymbolTableRecord
100
AcDbBlockTableRecord
  2
*U18
340
0
102
{BLKREFS
331
14A
102
}
  0
BLOCK_RECORD
  5
14B
330
1
100
AcDbSymbolTableRecord
100
AcDbBlockTableRecord
  2
*U19
340
0
102
{BLKREFS
331
14C
102
}
  0
BLOCK_RECORD
  5
151
330
1
100
AcDbSymbolTableRecord
100
AcDbBlockTableRecord
  2
*U20
340
0
102
{BLKREFS
331
152
102
}
  0
BLOCK_RECORD
  5
153
330
1
100
AcDbSymbolTableRecord
100
AcDbBlockTableRecord
  2
*U21
340
0
102
{BLKREFS
331
154
102
}
  0
BLOCK_RECORD
  5
160
330
1
100
AcDbSymbolTableRecord
100
AcDbBlockTableRecord
  2
*U22
340
0
102
{BLKREFS
331
161
102
}
  0
BLOCK_RECORD
  5
162
330
1
100
AcDbSymbolTableRecord
100
AcDbBlockTableRecord
  2
*U23
340
0
102
{BLKREFS
331
163
102
}
  0
BLOCK_RECORD
  5
171
330
1
100
AcDbSymbolTableRecord
100
AcDbBlockTableRecord
  2
*U24
340
0
102
{BLKREFS
331
172
102
}
  0
BLOCK_RECORD
  5
173
330
1
100
AcDbSymbolTableRecord
100
AcDbBlockTableRecord
  2
*U25
340
0
102
{BLKREFS
331
174
102
}
  0
BLOCK_RECORD
  5
176
330
1
100
AcDbSymbolTableRecord
100
AcDbBlockTableRecord
  2
*U26
340
0
102
{BLKREFS
331
177
102
}
  0
BLOCK_RECORD
  5
178
330
1
100
AcDbSymbolTableRecord
100
AcDbBlockTableRecord
  2
*U27
340
0
102
{BLKREFS
331
179
102
}
  0
BLOCK_RECORD
  5
17D
330
1
100
AcDbSymbolTableRecord
100
AcDbBlockTableRecord
  2
*U28
340
0
102
{BLKREFS
331
17E
102
}
  0
BLOCK_RECORD
  5
17F
330
1
100
AcDbSymbolTableRecord
100
AcDbBlockTableRecord
  2
*U29
340
0
102
{BLKREFS
331
180
102
}
  0
BLOCK_RECORD
  5
185
330
1
100
AcDbSymbolTableRecord
100
AcDbBlockTableRecord
  2
*U30
340
0
102
{BLKREFS
331
186
102
}
  0
BLOCK_RECORD
  5
187
330
1
100
AcDbSymbolTableRecord
100
AcDbBlockTableRecord
  2
*U31
340
0
102
{BLKREFS
331
188
102
}
  0
BLOCK_RECORD
  5
18C
330
1
100
AcDbSymbolTableRecord
100
AcDbBlockTableRecord
  2
*U32
340
0
102
{BLKREFS
331
199
102
}
  0
BLOCK_RECORD
  5
191
330
1
100
AcDbSymbolTableRecord
100
AcDbBlockTableRecord
  2
DRILLINGS
340
0
  0
BLOCK_RECORD
  5
19C
330
1
100
AcDbSymbolTableRecord
100
AcDbBlockTableRecord
  2
STENCIL
340
0
  0
BLOCK_RECORD
  5
202
330
1
100
AcDbSymbolTableRecord
100
AcDbBlockTableRecord
  2
*U35
340
0
102
{BLKREFS
331
220
102
}
  0
BLOCK_RECORD
  5
207
330
1
100
AcDbSymbolTableRecord
100
AcDbBlockTableRecord
  2
*U36
340
0
102
{BLKREFS
331
221
102
}
  0
BLOCK_RECORD
  5
20C
330
1
100
AcDbSymbolTableRecord
100
AcDbBlockTableRecord
  2
5
340
0
  0
BLOCK_RECORD
  5
224
330
1
100
AcDbSymbolTableRecord
100
AcDbBlockTableRecord
  2
*U38
340
0
102
{BLKREFS
331
26B
102
}
  0
BLOCK_RECORD
  5
229
330
1
100
AcDbSymbolTableRecord
100
AcDbBlockTableRecord
  2
*U39
340
0
102
{BLKREFS
331
23E
102
}
  0
BLOCK_RECORD
  5
22E
330
1
100
AcDbSymbolTableRecord
100
AcDbBlockTableRecord
  2
*U40
340
0
102
{BLKREFS
331
23F
102
}
  0
BLOCK_RECORD
  5
236
330
1
100
AcDbSymbolTableRecord
100
AcDbBlockTableRecord
  2
1
340
0
  0
BLOCK_RECORD
  5
264
330
1
100
AcDbSymbolTableRecord
100
AcDbBlockTableRecord
  2
X
340
0
  0
BLOCK_RECORD
  5
266
330
1
100
AcDbSymbolTableRecord
100
AcDbBlockTableRecord
  2
*D43
340
0
102
{BLKREFS
331
267
102
}
  0
BLOCK_RECORD
  5
268
330
1
100
AcDbSymbolTableRecord
100
AcDbBlockTableRecord
  2
*D44
340
0
102
{BLKREFS
331
269
102
}
  0
BLOCK_RECORD
  5
273
330
1
100
AcDbSymbolTableRecord
100
AcDbBlockTableRecord
  2
J
340
0
  0
BLOCK_RECORD
  5
2A3
330
1
100
AcDbSymbolTableRecord
100
AcDbBlockTableRecord
  2
*U46
340
0
102
{BLKREFS
331
3F7
102
}
  0
BLOCK_RECORD
  5
2A9
330
1
100
AcDbSymbolTableRecord
100
AcDbBlockTableRecord
  2
WESSAN1
340
0
  0
BLOCK_RECORD
  5
3F5
330
1
100
AcDbSymbolTableRecord
100
AcDbBlockTableRecord
  2
*D48
340
0
102
{BLKREFS
331
3F6
102
}
  0
BLOCK_RECORD
  5
ED2
102
{ACAD_XDICTIONARY
360
ED3
102
}
330
1
100
AcDbSymbolTableRecord
100
AcDbBlockTableRecord
  2
CENTRE MARK
340
0
  0
ENDTAB
  0
ENDSEC
  0
SECTION
  2
BLOCKS
  0
BLOCK
  5
23
330
22
100
AcDbEntity
  8
0
100
AcDbBlockBegin
  2
*Model_Space
 70
     0
 10
0.0
 20
0.0
 30
0.0
  3
*Model_Space
  1

  0
ENDBLK
  5
24
330
22
100
AcDbEntity
  8
0
100
AcDbBlockEnd
  0
BLOCK
  5
1F
330
1E
100
AcDbEntity
 67
     1
  8
0
100
AcDbBlockBegin
  2
*Paper_Space
 70
     0
 10
0.0
 20
0.0
 30
0.0
  3
*Paper_Space
  1

  0
ENDBLK
  5
20
330
1E
100
AcDbEntity
 67
     1
  8
0
100
AcDbBlockEnd
  0
BLOCK
  5
100
330
FF
100
AcDbEntity
  8
0
100
AcDbBlockBegin
  2
*U0
 70
     1
 10
0.0
 20
0.0
 30
0.0
  3
*U0
  1

  0
TEXT
  5
101
330
FF
100
AcDbEntity
  8
1
  6
Continuous
 62
     3
100
AcDbText
 10
-1.314166666666666
 20
-0.0475
 30
0.0
 40
0.095
  1
SEE REF. DRAWING NO. 92001 FOR
 72
     1
 11
0.0
 21
0.0
 31
0.0
100
AcDbText
 73
     2
  0
TEXT
  5
102
330
FF
100
AcDbEntity
  8
1
  6
Continuous
 62
     3
100
AcDbText
 10
-1.323666666666667
 20
-0.19
 30
0.0
 40
0.095
  1
PRODUCT FINISH SPECIFICATIONS
 72
     1
 11
0.0
 21
-0.1425
 31
0.0
100
AcDbText
 73
     2
  0
TEXT
  5
103
330
FF
100
AcDbEntity
  8
1
  6
Continuous
 62
     3
100
AcDbText
 10
-0.0285
 20
-0.3325
 30
0.0
 40
0.095
  1
 
 72
     1
 11
0.0
 21
-0.285
 31
0.0
100
AcDbText
 73
     2
  0
TEXT
  5
104
330
FF
100
AcDbEntity
  8
1
  6
Continuous
 62
     3
100
AcDbText
 10
-1.314166666666666
 20
-0.475
 30
0.0
 40
0.095
  1
SEE REF. DRAWING NO. 92002 FOR
 72
     1
 11
0.0
 21
-0.4275000000000001
 31
0.0
100
AcDbText
 73
     2
  0
TEXT
  5
105
330
FF
100
AcDbEntity
  8
1
  6
Continuous
 62
     3
100
AcDbText
 10
-1.371166666666667
 20
-0.6174999999999999
 30
0.0
 40
0.095
  1
SOUND DEADENING SPECIFICATIONS
 72
     1
 11
0.0
 21
-0.57
 31
0.0
100
AcDbText
 73
     2
  0
ENDBLK
  5
106
330
FF
100
AcDbEntity
  8
0
100
AcDbBlockEnd
  0
BLOCK
  5
108
330
107
100
AcDbEntity
  8
0
100
AcDbBlockBegin
  2
3
 70
     0
 10
0.0
 20
0.0
 30
0.0
  3
3
  1

  0
INSERT
  5
109
330
107
100
AcDbEntity
  8
1
100
AcDbBlockReference
  2
*U0
 10
-1.9851022
 20
1.3574066
 30
0.0
  0
POINT
  5
10A
330
107
100
AcDbEntity
  8
1
  6
Continuous
 62
     1
100
AcDbPoint
 10
0.0
 20
0.0
 30
0.0
  0
ENDBLK
  5
10B
330
107
100
AcDbEntity
  8
0
100
AcDbBlockEnd
  0
BLOCK
  5
11A
330
119
100
AcDbEntity
  8
0
100
AcDbBlockBegin
  2
ELITE
 70
     0
 10
0.0
 20
0.0
 30
0.0
  3
ELITE
  1

  0
LINE
  5
11B
330
119
100
AcDbEntity
  8
1
  6
Continuous
 62
     3
100
AcDbLine
 10
-0.5
 20
0.5625
 30
0.0
 11
-0.5
 21
-0.375
 31
0.0
  0
INSERT
  5
11D
330
119
100
AcDbEntity
  8
1
 62
     3
100
AcDbBlockReference
  2
*U3
 10
-1.0
 20
-0.5625
 30
0.0
 42
0.8571428599999999
 50
270.0
  0
INSERT
  5
11F
330
119
100
AcDbEntity
  8
1
 62
     3
100
AcDbBlockReference
  2
*U4
 10
-1.0
 20
-0.5625
 30
0.0
 42
0.5714285700000001
 50
270.0
  0
ARC
  5
120
330
119
100
AcDbEntity
  8
1
  6
Continuous
 62
     3
100
AcDbCircle
 10
-1.0625
 20
-0.3125
 30
0.0
 40
0.1875
100
AcDbArc
 50
90.0
 51
283.44515
  0
INSERT
  5
122
330
119
100
AcDbEntity
  8
1
 62
     3
100
AcDbBlockReference
  2
*U5
 10
-1.0625
 20
-0.3125
 30
0.0
 42
0.8333333299999999
 50
90.0
  0
CIRCLE
  5
123
330
119
100
AcDbEntity
  8
1
  6
Continuous
 62
     3
100
AcDbCircle
 10
-1.0347645
 20
-0.43440723
 30
0.0
 40
0.0625
  0
LINE
  5
124
330
119
100
AcDbEntity
  8
1
  6
Continuous
 62
     3
100
AcDbLine
 10
-1.0625
 20
-0.125
 30
0.0
 11
-1.0
 21
-0.125
 31
0.0
  0
INSERT
  5
126
330
119
100
AcDbEntity
  8
1
 62
     3
100
AcDbBlockReference
  2
*U6
 10
-1.0
 20
-0.40625
 30
0.0
 42
0.95
 50
180.0
  0
INSERT
  5
128
330
119
100
AcDbEntity
  8
1
 62
     3
100
AcDbBlockReference
  2
*U7
 10
-1.0
 20
-0.40625
 30
0.0
 42
0.8230613899999999
 50
90.0
  0
INSERT
  5
12A
330
119
100
AcDbEntity
  8
1
 62
     3
100
AcDbBlockReference
  2
*U8
 10
-1.0
 20
0.15625
 30
0.0
 42
0.25
 50
180.0
  0
INSERT
  5
12C
330
119
100
AcDbEntity
  8
1
 62
     3
100
AcDbBlockReference
  2
*U9
 10
-1.0
 20
0.15625
 30
0.0
 42
0.28180044
 50
180.0
  0
INSERT
  5
12E
330
119
100
AcDbEntity
  8
1
 62
     3
100
AcDbBlockReference
  2
*U10
 10
-1.0
 20
0.5625
 30
0.0
  0
INSERT
  5
130
330
119
100
AcDbEntity
  8
1
 62
     3
100
AcDbBlockReference
  2
*U11
 10
-1.0
 20
0.5625
 30
0.0
 42
0.76073669
 50
270.0
  0
LINE
  5
131
330
119
100
AcDbEntity
  8
1
  6
Continuous
 62
     3
100
AcDbLine
 10
-0.9375
 20
0.5
 30
0.0
 11
-0.875
 21
0.5
 31
0.0
  0
INSERT
  5
133
330
119
100
AcDbEntity
  8
1
 62
     3
100
AcDbBlockReference
  2
*U12
 10
-0.875
 20
0.75
 30
0.0
 42
0.75
 50
90.0
  0
INSERT
  5
135
330
119
100
AcDbEntity
  8
1
 62
     3
100
AcDbBlockReference
  2
*U13
 10
-0.875
 20
0.75
 30
0.0
 42
0.6492060000000001
 50
270.0
  0
ARC
  5
136
330
119
100
AcDbEntity
  8
1
  6
Continuous
 62
     3
100
AcDbCircle
 10
-0.9375
 20
0.625
 30
0.0
 40
0.125
100
AcDbArc
 50
180.0
 51
270.0
  0
LINE
  5
137
330
119
100
AcDbEntity
  8
1
  6
Continuous
 62
     3
100
AcDbLine
 10
-0.9999999899999998
 20
1.0
 30
0.0
 11
-0.8764458499999999
 21
0.9999913199999999
 31
0.0
  0
ARC
  5
138
330
119
100
AcDbEntity
  8
1
  6
Continuous
 62
     3
100
AcDbCircle
 10
-0.9234298
 20
0.625
 30
0.0
 40
0.125
100
AcDbArc
 50
180.0
 51
270.0
  0
LINE
  5
139
330
119
100
AcDbEntity
  8
1
  6
Continuous
 62
     3
100
AcDbLine
 10
-1.0625
 20
0.625
 30
0.0
 11
-1.0484298
 21
0.625
 31
0.0
  0
LINE
  5
13A
330
119
100
AcDbEntity
  8
1
  6
Continuous
 62
     3
100
AcDbLine
 10
0.0
 20
0.0
 30
0.0
 11
0.0
 21
-0.375
 31
0.0
  0
LINE
  5
13B
330
119
100
AcDbEntity
  8
1
  6
Continuous
 62
     3
100
AcDbLine
 10
-0.375
 20
0.5625
 30
0.0
 11
-0.375
 21
-0.375
 31
0.0
  0
INSERT
  5
13D
330
119
100
AcDbEntity
  8
1
 62
     3
100
AcDbBlockReference
  2
*U14
 10
-0.25
 20
0.5625
 30
0.0
 42
0.6666666700000001
 50
90.0
  0
INSERT
  5
13F
330
119
100
AcDbEntity
  8
1
 62
     3
100
AcDbBlockReference
  2
*U15
 10
-0.25
 20
0.5625
 30
0.0
 42
0.33333333
 50
90.0
  0
ARC
  5
140
330
119
100
AcDbEntity
  8
1
  6
Continuous
 62
     3
100
AcDbCircle
 10
-0.25
 20
0.8125
 30
0.0
 40
0.125
100
AcDbArc
 50
0.0
 51
90.0
  0
INSERT
  5
142
330
119
100
AcDbEntity
  8
1
 62
     3
100
AcDbBlockReference
  2
*U16
 10
-0.3125
 20
0.8125
 30
0.0
 42
0.3
 50
90.0
  0
LINE
  5
143
330
119
100
AcDbEntity
  8
1
  6
Continuous
 62
     3
100
AcDbLine
 10
-0.3125
 20
0.11092334
 30
0.0
 11
-0.22731943
 21
0.25571836
 31
0.0
  0
ARC
  5
144
330
119
100
AcDbEntity
  8
1
  6
Continuous
 62
     3
100
AcDbCircle
 10
-0.2634689
 20
0.8147448
 30
0.0
 40
0.125
100
AcDbArc
 50
0.0
 51
83.73846099999999
  0
INSERT
  5
146
330
119
100
AcDbEntity
  8
1
 62
     3
100
AcDbBlockReference
  2
*U17
 10
-0.3259689
 20
0.8147448
 30
0.0
 42
0.3
 50
90.0
  0
LINE
  5
147
330
119
100
AcDbEntity
  8
1
  6
Continuous
 62
     3
100
AcDbLine
 10
-0.3259689
 20
0.11316814
 30
0.0
 11
-0.24078833
 21
0.25796316
 31
0.0
  0
LINE
  5
148
330
119
100
AcDbEntity
  8
1
  6
Continuous
 62
     3
100
AcDbLine
 10
-0.3259689
 20
0.11316814
 30
0.0
 11
-0.31117942
 21
0.11316814
 31
0.0
  0
INSERT
  5
14A
330
119
100
AcDbEntity
  8
1
 62
     3
100
AcDbBlockReference
  2
*U18
 10
-0.25
 20
-0.375
 30
0.0
 42
0.6666666700000001
 50
270.0
  0
INSERT
  5
14C
330
119
100
AcDbEntity
  8
1
 62
     3
100
AcDbBlockReference
  2
*U19
 10
-0.25
 20
-0.375
 30
0.0
 42
0.33333333
 50
270.0
  0
ARC
  5
14D
330
119
100
AcDbEntity
  8
1
  6
Continuous
 62
     3
100
AcDbCircle
 10
-0.25178589
 20
-0.5625
 30
0.0
 40
0.18746173
100
AcDbArc
 50
270.54571
 51
318.1186
  0
LINE
  5
14E
330
119
100
AcDbEntity
  8
1
  6
Continuous
 62
     3
100
AcDbLine
 10
0.024095585
 20
-0.53562749
 30
0.0
 11
-0.11221532
 21
-0.68764774
 31
0.0
  0
ARC
  5
14F
330
119
100
AcDbEntity
  8
1
  6
Continuous
 62
     3
100
AcDbCircle
 10
-0.27038779
 20
-0.5597345000000001
 30
0.0
 40
0.18746173
100
AcDbArc
 50
271.3847
 51
317.87769
  0
LINE
  5
150
330
119
100
AcDbEntity
  8
1
  6
Continuous
 62
     3
100
AcDbLine
 10
0.019171834
 20
-0.51901842
 30
0.0
 11
-0.13134466
 21
-0.68546798
 31
0.0
  0
INSERT
  5
152
330
119
100
AcDbEntity
  8
1
 62
     3
100
AcDbBlockReference
  2
*U20
 10
0.25
 20
-0.375
 30
0.0
 42
0.6666666700000001
 50
270.0
  0
INSERT
  5
154
330
119
100
AcDbEntity
  8
1
 62
     3
100
AcDbBlockReference
  2
*U21
 10
0.25
 20
-0.375
 30
0.0
 42
0.33333333
 50
270.0
  0
ARC
  5
155
330
119
100
AcDbEntity
  8
1
  6
Continuous
 62
     3
100
AcDbCircle
 10
0.22961221
 20
-0.5597345000000001
 30
0.0
 40
0.18746173
100
AcDbArc
 50
271.3847
 51
317.87769
  0
ARC
  5
156
330
119
100
AcDbEntity
  8
1
  6
Continuous
 62
     3
100
AcDbCircle
 10
0.24821411
 20
-0.5625
 30
0.0
 40
0.18746173
100
AcDbArc
 50
270.54571
 51
318.1186
  0
LINE
  5
157
330
119
100
AcDbEntity
  8
1
  6
Continuous
 62
     3
100
AcDbLine
 10
0.51917183
 20
-0.51901842
 30
0.0
 11
0.36865534
 21
-0.68546798
 31
0.0
  0
LINE
  5
158
330
119
100
AcDbEntity
  8
1
  6
Continuous
 62
     3
100
AcDbLine
 10
0.52409558
 20
-0.53562749
 30
0.0
 11
0.38778468
 21
-0.68764774
 31
0.0
  0
LINE
  5
159
330
119
100
AcDbEntity
  8
1
  6
Continuous
 62
     3
100
AcDbLine
 10
0.0
 20
0.0
 30
0.0
 11
0.0
 21
-0.375
 31
0.0
  0
LINE
  5
15A
330
119
100
AcDbEntity
  8
1
  6
Continuous
 62
     3
100
AcDbLine
 10
0.125
 20
0.0
 30
0.0
 11
0.125
 21
-0.375
 31
0.0
  0
LINE
  5
15B
330
119
100
AcDbEntity
  8
1
  6
Continuous
 62
     3
100
AcDbLine
 10
0.019171834
 20
-0.51901842
 30
0.0
 11
0.024095585
 21
-0.53562749
 31
0.0
  0
LINE
  5
15C
330
119
100
AcDbEntity
  8
1
  6
Continuous
 62
     3
100
AcDbLine
 10
0.0
 20
0.0
 30
0.0
 11
0.125
 21
0.0
 31
0.0
  0
CIRCLE
  5
15D
330
119
100
AcDbEntity
  8
1
  6
Continuous
 62
     3
100
AcDbCircle
 10
0.0625
 20
0.25
 30
0.0
 40
0.0625
  0
LINE
  5
15E
330
119
100
AcDbEntity
  8
1
  6
Continuous
 62
     3
100
AcDbLine
 10
0.5
 20
0.5
 30
0.0
 11
0.5
 21
0.03125
 31
0.0
  0
LINE
  5
15F
330
119
100
AcDbEntity
  8
1
  6
Continuous
 62
     3
100
AcDbLine
 10
0.625
 20
0.5
 30
0.0
 11
0.625
 21
0.03125
 31
0.0
  0
INSERT
  5
161
330
119
100
AcDbEntity
  8
1
 62
     3
100
AcDbBlockReference
  2
*U22
 10
0.75
 20
-0.375
 30
0.0
 42
0.33333333
 50
270.0
  0
INSERT
  5
163
330
119
100
AcDbEntity
  8
1
 62
     3
100
AcDbBlockReference
  2
*U23
 10
0.75
 20
-0.375
 30
0.0
 42
0.6666666700000001
 50
270.0
  0
ARC
  5
164
330
119
100
AcDbEntity
  8
1
  6
Continuous
 62
     3
100
AcDbCircle
 10
0.72961221
 20
-0.5597345000000001
 30
0.0
 40
0.18746173
100
AcDbArc
 50
271.3847
 51
317.87769
  0
ARC
  5
165
330
119
100
AcDbEntity
  8
1
  6
Continuous
 62
     3
100
AcDbCircle
 10
0.7482141100000001
 20
-0.5625
 30
0.0
 40
0.18746173
100
AcDbArc
 50
270.54571
 51
312.55747
  0
LINE
  5
166
330
119
100
AcDbEntity
  8
1
  6
Continuous
 62
     3
100
AcDbLine
 10
0.875
 20
-0.6784517000000001
 30
0.0
 11
0.8686553399999999
 21
-0.68546798
 31
0.0
  0
LINE
  5
167
330
119
100
AcDbEntity
  8
1
  6
Continuous
 62
     3
100
AcDbLine
 10
0.51917183
 20
-0.51901842
 30
0.0
 11
0.52409558
 21
-0.53562749
 31
0.0
  0
LINE
  5
168
330
119
100
AcDbEntity
  8
1
  6
Continuous
 62
     3
100
AcDbLine
 10
0.5
 20
0.5
 30
0.0
 11
0.625
 21
0.5
 31
0.0
  0
LINE
  5
169
330
119
100
AcDbEntity
  8
1
  6
Continuous
 62
     3
100
AcDbLine
 10
0.875
 20
0.015625
 30
0.0
 11
0.625
 21
0.015625
 31
0.0
  0
LINE
  5
16A
330
119
100
AcDbEntity
  8
1
  6
Continuous
 62
     3
100
AcDbLine
 10
0.875
 20
0.03125
 30
0.0
 11
0.625
 21
0.03125
 31
0.0
  0
LINE
  5
16B
330
119
100
AcDbEntity
  8
1
  6
Continuous
 62
     3
100
AcDbLine
 10
0.875
 20
0.03125
 30
0.0
 11
0.875
 21
0.015625
 31
0.0
  0
LINE
  5
16C
330
119
100
AcDbEntity
  8
1
  6
Continuous
 62
     3
100
AcDbLine
 10
0.375
 20
0.03125
 30
0.0
 11
0.375
 21
0.015625
 31
0.0
  0
LINE
  5
16D
330
119
100
AcDbEntity
  8
1
  6
Continuous
 62
     3
100
AcDbLine
 10
0.5
 20
0.015625
 30
0.0
 11
0.5
 21
-0.375
 31
0.0
  0
LINE
  5
16E
330
119
100
AcDbEntity
  8
1
  6
Continuous
 62
     3
100
AcDbLine
 10
0.625
 20
0.015625
 30
0.0
 11
0.625
 21
-0.375
 31
0.0
  0
LINE
  5
16F
330
119
100
AcDbEntity
  8
1
  6
Continuous
 62
     3
100
AcDbLine
 10
0.5
 20
0.03125
 30
0.0
 11
0.375
 21
0.03125
 31
0.0
  0
LINE
  5
170
330
119
100
AcDbEntity
  8
1
  6
Continuous
 62
     3
100
AcDbLine
 10
0.5
 20
0.015625
 30
0.0
 11
0.375
 21
0.015625
 31
0.0
  0
INSERT
  5
172
330
119
100
AcDbEntity
  8
1
 62
     3
100
AcDbBlockReference
  2
*U24
 10
1.25
 20
-0.375
 30
0.0
  0
INSERT
  5
174
330
119
100
AcDbEntity
  8
1
 62
     3
100
AcDbBlockReference
  2
*U25
 10
1.323724399999999
 20
-0.375
 30
0.0
  0
ARC
  5
175
330
119
100
AcDbEntity
  8
1
  6
Continuous
 62
     3
100
AcDbCircle
 10
1.25
 20
-0.625
 30
0.0
 40
0.11453228
100
AcDbArc
 50
249.75531
 51
290.24469
  0
INSERT
  5
177
330
119
100
AcDbEntity
  8
1
 62
     3
100
AcDbBlockReference
  2
*U26
 10
1.1875
 20
-0.21875
 30
0.0
 42
0.875
 50
180.0
  0
INSERT
  5
179
330
119
100
AcDbEntity
  8
1
 62
     3
100
AcDbBlockReference
  2
*U27
 10
1.1875
 20
-0.21875
 30
0.0
 42
0.9698324599999999
 50
90.0
  0
LINE
  5
17A
330
119
100
AcDbEntity
  8
1
  6
Continuous
 62
     3
100
AcDbLine
 10
0.875
 20
-0.6784517000000001
 30
0.0
 11
0.9651861
 21
-0.6189386
 31
0.0
  0
LINE
  5
17B
330
119
100
AcDbEntity
  8
1
  6
Continuous
 62
     3
100
AcDbLine
 10
0.875
 20
-0.70058417
 30
0.0
 11
0.9774782599999999
 21
-0.63259833
 31
0.0
  0
LINE
  5
17C
330
119
100
AcDbEntity
  8
1
  6
Continuous
 62
     3
100
AcDbLine
 10
0.875
 20
-0.6784517000000001
 30
0.0
 11
0.875
 21
-0.70058417
 31
0.0
  0
INSERT
  5
17E
330
119
100
AcDbEntity
  8
1
 62
     3
100
AcDbBlockReference
  2
*U28
 10
1.1762756
 20
-0.375
 30
0.0
 50
180.0
  0
INSERT
  5
180
330
119
100
AcDbEntity
  8
1
 62
     3
100
AcDbBlockReference
  2
*U29
 10
1.1762756
 20
-0.38546772
 30
0.0
 50
180.0
  0
ARC
  5
181
330
119
100
AcDbEntity
  8
1
  6
Continuous
 62
     3
100
AcDbCircle
 10
1.25
 20
-0.63546772
 30
0.0
 40
0.11453228
100
AcDbArc
 50
264.39532
 51
290.24469
  0
LINE
  5
182
330
119
100
AcDbEntity
  8
1
  6
Continuous
 62
     3
100
AcDbLine
 10
1.4375
 20
-0.64404797
 30
0.0
 11
1.4375
 21
-0.6545156900000001
 31
0.0
  0
LINE
  5
183
330
119
100
AcDbEntity
  8
1
  6
Continuous
 62
     3
100
AcDbLine
 10
1.0141473
 20
-0.5866294800000001
 30
0.0
 11
1.299116799999999
 21
-0.39858038
 31
0.0
  0
LINE
  5
184
330
119
100
AcDbEntity
  8
1
  6
Continuous
 62
     3
100
AcDbLine
 10
1.0246877
 20
-0.6012787600000001
 30
0.0
 11
1.3385423
 21
-0.39306227
 31
0.0
  0
INSERT
  5
186
330
119
100
AcDbEntity
  8
1
 62
     3
100
AcDbBlockReference
  2
*U30
 10
1.25
 20
-0.375
 30
0.0
  0
INSERT
  5
188
330
119
100
AcDbEntity
  8
1
 62
     3
100
AcDbBlockReference
  2
*U31
 10
1.323724399999999
 20
-0.375
 30
0.0
  0
LINE
  5
189
330
119
100
AcDbEntity
  8
1
  6
Continuous
 62
     3
100
AcDbLine
 10
0.9651861
 20
-0.6189386
 30
0.0
 11
0.9774782599999999
 21
-0.63259833
 31
0.0
  0
POINT
  5
18A
330
119
100
AcDbEntity
  8
1
  6
Continuous
 62
     1
100
AcDbPoint
 10
0.0
 20
0.0
 30
0.0
  0
ENDBLK
  5
18B
330
119
100
AcDbEntity
  8
0
100
AcDbBlockEnd
  0
BLOCK
  5
4A9
330
11C
100
AcDbEntity
  8
0
100
AcDbBlockBegin
  2
*U3
 70
     1
 10
-1.0
 20
-0.5625
 30
0.0
  3
*U3
  1

  0
ARC
  5
4AA
330
11C
100
AcDbEntity
  8
1
  6
Continuous
 62
     3
100
AcDbCircle
 10
-1.0
 20
-0.5625
 30
0.0
 40
0.4375
100
AcDbArc
 50
0.0
 51
180.0
  0
ENDBLK
  5
4AB
330
11C
100
AcDbEntity
  8
0
100
AcDbBlockEnd
  0
BLOCK
  5
4AC
330
11E
100
AcDbEntity
  8
0
100
AcDbBlockBegin
  2
*U4
 70
     1
 10
-1.0
 20
-0.5625
 30
0.0
  3
*U4
  1

  0
ARC
  5
4AD
330
11E
100
AcDbEntity
  8
1
  6
Continuous
 62
     3
100
AcDbCircle
 10
-1.0
 20
-0.5625
 30
0.0
 40
0.4375
100
AcDbArc
 50
0.0
 51
180.0
  0
ENDBLK
  5
4AE
330
11E
100
AcDbEntity
  8
0
100
AcDbBlockEnd
  0
BLOCK
  5
4AF
330
121
100
AcDbEntity
  8
0
100
AcDbBlockBegin
  2
*U5
 70
     1
 10
-1.0625
 20
-0.3125
 30
0.0
  3
*U5
  1

  0
ARC
  5
4B0
330
121
100
AcDbEntity
  8
1
  6
Continuous
 62
     3
100
AcDbCircle
 10
-1.0625
 20
-0.3125
 30
0.0
 40
0.1875
100
AcDbArc
 50
0.0
 51
180.0
  0
ENDBLK
  5
4B1
330
121
100
AcDbEntity
  8
0
100
AcDbBlockEnd
  0
BLOCK
  5
4B2
330
125
100
AcDbEntity
  8
0
100
AcDbBlockBegin
  2
*U6
 70
     1
 10
-1.0
 20
-0.40625
 30
0.0
  3
*U6
  1

  0
ARC
  5
4B3
330
125
100
AcDbEntity
  8
1
  6
Continuous
 62
     3
100
AcDbCircle
 10
-1.0
 20
-0.40625
 30
0.0
 40
0.625
100
AcDbArc
 50
270.0
 51
90.0
  0
ENDBLK
  5
4B4
330
125
100
AcDbEntity
  8
0
100
AcDbBlockEnd
  0
BLOCK
  5
4B5
330
127
100
AcDbEntity
  8
0
100
AcDbBlockBegin
  2
*U7
 70
     1
 10
-1.0
 20
-0.40625
 30
0.0
  3
*U7
  1

  0
ARC
  5
4B6
330
127
100
AcDbEntity
  8
1
  6
Continuous
 62
     3
100
AcDbCircle
 10
-1.0
 20
-0.40625
 30
0.0
 40
0.59375
100
AcDbArc
 50
0.0
 51
180.0
  0
ENDBLK
  5
4B7
330
127
100
AcDbEntity
  8
0
100
AcDbBlockEnd
  0
BLOCK
  5
4B8
330
129
100
AcDbEntity
  8
0
100
AcDbBlockBegin
  2
*U8
 70
     1
 10
-1.0
 20
0.15625
 30
0.0
  3
*U8
  1

  0
ARC
  5
4B9
330
129
100
AcDbEntity
  8
1
  6
Continuous
 62
     3
100
AcDbCircle
 10
-1.0
 20
0.15625
 30
0.0
 40
0.125
100
AcDbArc
 50
90.0
 51
270.0
  0
ENDBLK
  5
4BA
330
129
100
AcDbEntity
  8
0
100
AcDbBlockEnd
  0
BLOCK
  5
4BB
330
12B
100
AcDbEntity
  8
0
100
AcDbBlockBegin
  2
*U9
 70
     1
 10
-1.0
 20
0.15625
 30
0.0
  3
*U9
  1

  0
ARC
  5
4BC
330
12B
100
AcDbEntity
  8
1
  6
Continuous
 62
     3
100
AcDbCircle
 10
-1.0
 20
0.15625
 30
0.0
 40
0.11089408
100
AcDbArc
 50
90.0
 51
270.0
  0
ENDBLK
  5
4BD
330
12B
100
AcDbEntity
  8
0
100
AcDbBlockEnd
  0
BLOCK
  5
4BE
330
12D
100
AcDbEntity
  8
0
100
AcDbBlockBegin
  2
*U10
 70
     1
 10
-1.0
 20
0.5625
 30
0.0
  3
*U10
  1

  0
ARC
  5
4BF
330
12D
100
AcDbEntity
  8
1
  6
Continuous
 62
     3
100
AcDbCircle
 10
-1.0
 20
0.5625
 30
0.0
 40
0.4375
100
AcDbArc
 50
90.0
 51
270.0
  0
ENDBLK
  5
4C0
330
12D
100
AcDbEntity
  8
0
100
AcDbBlockEnd
  0
BLOCK
  5
4C1
330
12F
100
AcDbEntity
  8
0
100
AcDbBlockBegin
  2
*U11
 70
     1
 10
-1.0
 20
0.5625
 30
0.0
  3
*U11
  1

  0
ARC
  5
4C2
330
12F
100
AcDbEntity
  8
1
  6
Continuous
 62
     3
100
AcDbCircle
 10
-1.0
 20
0.5625
 30
0.0
 40
0.4375
100
AcDbArc
 50
180.0
 51
0.0
  0
ENDBLK
  5
4C3
330
12F
100
AcDbEntity
  8
0
100
AcDbBlockEnd
  0
BLOCK
  5
4C4
330
132
100
AcDbEntity
  8
0
100
AcDbBlockBegin
  2
*U12
 70
     1
 10
-0.875
 20
0.75
 30
0.0
  3
*U12
  1

  0
ARC
  5
4C5
330
132
100
AcDbEntity
  8
1
  6
Continuous
 62
     3
100
AcDbCircle
 10
-0.875
 20
0.75
 30
0.0
 40
0.25
100
AcDbArc
 50
180.0
 51
0.0
  0
ENDBLK
  5
4C6
330
132
100
AcDbEntity
  8
0
100
AcDbBlockEnd
  0
BLOCK
  5
4C7
330
134
100
AcDbEntity
  8
0
100
AcDbBlockBegin
  2
*U13
 70
     1
 10
-0.875
 20
0.75
 30
0.0
  3
*U13
  1

  0
ARC
  5
4C8
330
134
100
AcDbEntity
  8
1
  6
Continuous
 62
     3
100
AcDbCircle
 10
-0.875
 20
0.75
 30
0.0
 40
0.25
100
AcDbArc
 50
0.0
 51
180.0
  0
ENDBLK
  5
4C9
330
134
100
AcDbEntity
  8
0
100
AcDbBlockEnd
  0
BLOCK
  5
4CA
330
13C
100
AcDbEntity
  8
0
100
AcDbBlockBegin
  2
*U14
 70
     1
 10
-0.25
 20
0.5625
 30
0.0
  3
*U14
  1

  0
ARC
  5
4CB
330
13C
100
AcDbEntity
  8
1
  6
Continuous
 62
     3
100
AcDbCircle
 10
-0.25
 20
0.5625
 30
0.0
 40
0.375
100
AcDbArc
 50
0.0
 51
90.0
  0
ENDBLK
  5
4CC
330
13C
100
AcDbEntity
  8
0
100
AcDbBlockEnd
  0
BLOCK
  5
4CD
330
13E
100
AcDbEntity
  8
0
100
AcDbBlockBegin
  2
*U15
 70
     1
 10
-0.25
 20
0.5625
 30
0.0
  3
*U15
  1

  0
ARC
  5
4CE
330
13E
100
AcDbEntity
  8
1
  6
Continuous
 62
     3
100
AcDbCircle
 10
-0.25
 20
0.5625
 30
0.0
 40
0.375
100
AcDbArc
 50
0.0
 51
90.0
  0
ENDBLK
  5
4CF
330
13E
100
AcDbEntity
  8
0
100
AcDbBlockEnd
  0
BLOCK
  5
4D0
330
141
100
AcDbEntity
  8
0
100
AcDbBlockBegin
  2
*U16
 70
     1
 10
-0.3125
 20
0.8125
 30
0.0
  3
*U16
  1

  0
ARC
  5
4D1
330
141
100
AcDbEntity
  8
1
  6
Continuous
 62
     3
100
AcDbCircle
 10
-0.3125
 20
0.8125
 30
0.0
 40
0.625
100
AcDbArc
 50
207.01967
 51
270.0
  0
ENDBLK
  5
4D2
330
141
100
AcDbEntity
  8
0
100
AcDbBlockEnd
  0
BLOCK
  5
4D3
330
145
100
AcDbEntity
  8
0
100
AcDbBlockBegin
  2
*U17
 70
     1
 10
-0.3259689
 20
0.8147448
 30
0.0
  3
*U17
  1

  0
ARC
  5
4D4
330
145
100
AcDbEntity
  8
1
  6
Continuous
 62
     3
100
AcDbCircle
 10
-0.3259689
 20
0.8147448
 30
0.0
 40
0.625
100
AcDbArc
 50
207.01967
 51
270.0
  0
ENDBLK
  5
4D5
330
145
100
AcDbEntity
  8
0
100
AcDbBlockEnd
  0
BLOCK
  5
4D6
330
149
100
AcDbEntity
  8
0
100
AcDbBlockBegin
  2
*U18
 70
     1
 10
-0.25
 20
-0.375
 30
0.0
  3
*U18
  1

  0
ARC
  5
4D7
330
149
100
AcDbEntity
  8
1
  6
Continuous
 62
     3
100
AcDbCircle
 10
-0.25
 20
-0.375
 30
0.0
 40
0.375
100
AcDbArc
 50
270.0
 51
0.0
  0
ENDBLK
  5
4D8
330
149
100
AcDbEntity
  8
0
100
AcDbBlockEnd
  0
BLOCK
  5
4D9
330
14B
100
AcDbEntity
  8
0
100
AcDbBlockBegin
  2
*U19
 70
     1
 10
-0.25
 20
-0.375
 30
0.0
  3
*U19
  1

  0
ARC
  5
4DA
330
14B
100
AcDbEntity
  8
1
  6
Continuous
 62
     3
100
AcDbCircle
 10
-0.25
 20
-0.375
 30
0.0
 40
0.375
100
AcDbArc
 50
270.0
 51
352.70978
  0
ENDBLK
  5
4DB
330
14B
100
AcDbEntity
  8
0
100
AcDbBlockEnd
  0
BLOCK
  5
4DC
330
151
100
AcDbEntity
  8
0
100
AcDbBlockBegin
  2
*U20
 70
     1
 10
0.25
 20
-0.375
 30
0.0
  3
*U20
  1

  0
ARC
  5
4DD
330
151
100
AcDbEntity
  8
1
  6
Continuous
 62
     3
100
AcDbCircle
 10
0.25
 20
-0.375
 30
0.0
 40
0.375
100
AcDbArc
 50
270.0
 51
0.0
  0
ENDBLK
  5
4DE
330
151
100
AcDbEntity
  8
0
100
AcDbBlockEnd
  0
BLOCK
  5
4DF
330
153
100
AcDbEntity
  8
0
100
AcDbBlockBegin
  2
*U21
 70
     1
 10
0.25
 20
-0.375
 30
0.0
  3
*U21
  1

  0
ARC
  5
4E0
330
153
100
AcDbEntity
  8
1
  6
Continuous
 62
     3
100
AcDbCircle
 10
0.25
 20
-0.375
 30
0.0
 40
0.375
100
AcDbArc
 50
270.0
 51
352.70978
  0
ENDBLK
  5
4E1
330
153
100
AcDbEntity
  8
0
100
AcDbBlockEnd
  0
BLOCK
  5
4E2
330
160
100
AcDbEntity
  8
0
100
AcDbBlockBegin
  2
*U22
 70
     1
 10
0.75
 20
-0.375
 30
0.0
  3
*U22
  1

  0
ARC
  5
4E3
330
160
100
AcDbEntity
  8
1
  6
Continuous
 62
     3
100
AcDbCircle
 10
0.75
 20
-0.375
 30
0.0
 40
0.375
100
AcDbArc
 50
270.0
 51
352.70978
  0
ENDBLK
  5
4E4
330
160
100
AcDbEntity
  8
0
100
AcDbBlockEnd
  0
BLOCK
  5
4E5
330
162
100
AcDbEntity
  8
0
100
AcDbBlockBegin
  2
*U23
 70
     1
 10
0.75
 20
-0.375
 30
0.0
  3
*U23
  1

  0
ARC
  5
4E6
330
162
100
AcDbEntity
  8
1
  6
Continuous
 62
     3
100
AcDbCircle
 10
0.75
 20
-0.375
 30
0.0
 40
0.375
100
AcDbArc
 50
270.0
 51
0.0
  0
ENDBLK
  5
4E7
330
162
100
AcDbEntity
  8
0
100
AcDbBlockEnd
  0
BLOCK
  5
4E8
330
171
100
AcDbEntity
  8
0
100
AcDbBlockBegin
  2
*U24
 70
     1
 10
1.25
 20
-0.375
 30
0.0
  3
*U24
  1

  0
ARC
  5
4E9
330
171
100
AcDbEntity
  8
1
  6
Continuous
 62
     3
100
AcDbCircle
 10
1.25
 20
-0.375
 30
0.0
 40
0.375
100
AcDbArc
 50
95.10719600000001
 51
220.57953
  0
ENDBLK
  5
4EA
330
171
100
AcDbEntity
  8
0
100
AcDbBlockEnd
  0
BLOCK
  5
4EB
330
173
100
AcDbEntity
  8
0
100
AcDbBlockBegin
  2
*U25
 70
     1
 10
1.323724399999999
 20
-0.375
 30
0.0
  3
*U25
  1

  0
ARC
  5
4EC
330
173
100
AcDbEntity
  8
1
  6
Continuous
 62
     3
100
AcDbCircle
 10
1.323724399999999
 20
-0.375
 30
0.0
 40
0.375
100
AcDbArc
 50
103.78022
 51
214.35684
  0
ENDBLK
  5
4ED
330
173
100
AcDbEntity
  8
0
100
AcDbBlockEnd
  0
BLOCK
  5
4EE
330
176
100
AcDbEntity
  8
0
100
AcDbBlockBegin
  2
*U26
 70
     1
 10
1.1875
 20
-0.21875
 30
0.0
  3
*U26
  1

  0
ARC
  5
4EF
330
176
100
AcDbEntity
  8
1
  6
Continuous
 62
     3
100
AcDbCircle
 10
1.1875
 20
-0.21875
 30
0.0
 40
0.25
100
AcDbArc
 50
127.16908
 51
263.31153
  0
ENDBLK
  5
4F0
330
176
100
AcDbEntity
  8
0
100
AcDbBlockEnd
  0
BLOCK
  5
4F1
330
178
100
AcDbEntity
  8
0
100
AcDbBlockBegin
  2
*U27
 70
     1
 10
1.1875
 20
-0.21875
 30
0.0
  3
*U27
  1

  0
ARC
  5
4F2
330
178
100
AcDbEntity
  8
1
  6
Continuous
 62
     3
100
AcDbCircle
 10
1.1875
 20
-0.21875
 30
0.0
 40
0.21350499
100
AcDbArc
 50
212.61863
 51
346.90887
  0
ENDBLK
  5
4F3
330
178
100
AcDbEntity
  8
0
100
AcDbBlockEnd
  0
BLOCK
  5
4F4
330
17D
100
AcDbEntity
  8
0
100
AcDbBlockBegin
  2
*U28
 70
     1
 10
1.1762756
 20
-0.375
 30
0.0
  3
*U28
  1

  0
ARC
  5
4F5
330
17D
100
AcDbEntity
  8
1
  6
Continuous
 62
     3
100
AcDbCircle
 10
1.1762756
 20
-0.375
 30
0.0
 40
0.375
100
AcDbArc
 50
107.59476
 51
134.15473
  0
ENDBLK
  5
4F6
330
17D
100
AcDbEntity
  8
0
100
AcDbBlockEnd
  0
BLOCK
  5
4F7
330
17F
100
AcDbEntity
  8
0
100
AcDbBlockBegin
  2
*U29
 70
     1
 10
1.1762756
 20
-0.38546772
 30
0.0
  3
*U29
  1

  0
ARC
  5
4F8
330
17F
100
AcDbEntity
  8
1
  6
Continuous
 62
     3
100
AcDbCircle
 10
1.1762756
 20
-0.38546772
 30
0.0
 40
0.375
100
AcDbArc
 50
107.59476
 51
134.15473
  0
ENDBLK
  5
4F9
330
17F
100
AcDbEntity
  8
0
100
AcDbBlockEnd
  0
BLOCK
  5
4FA
330
185
100
AcDbEntity
  8
0
100
AcDbBlockBegin
  2
*U30
 70
     1
 10
1.25
 20
-0.375
 30
0.0
  3
*U30
  1

  0
ARC
  5
4FB
330
185
100
AcDbEntity
  8
1
  6
Continuous
 62
     3
100
AcDbCircle
 10
1.25
 20
-0.375
 30
0.0
 40
0.375
100
AcDbArc
 50
223.38749
 51
270.0
  0
ENDBLK
  5
4FC
330
185
100
AcDbEntity
  8
0
100
AcDbBlockEnd
  0
BLOCK
  5
4FD
330
187
100
AcDbEntity
  8
0
100
AcDbBlockBegin
  2
*U31
 70
     1
 10
1.323724399999999
 20
-0.375
 30
0.0
  3
*U31
  1

  0
ARC
  5
4FE
330
187
100
AcDbEntity
  8
1
  6
Continuous
 62
     3
100
AcDbCircle
 10
1.323724399999999
 20
-0.375
 30
0.0
 40
0.375
100
AcDbArc
 50
217.11451
 51
252.40524
  0
ENDBLK
  5
4FF
330
187
100
AcDbEntity
  8
0
100
AcDbBlockEnd
  0
BLOCK
  5
18D
330
18C
100
AcDbEntity
  8
0
100
AcDbBlockBegin
  2
*U32
 70
     1
 10
0.0
 20
0.0
 30
0.0
  3
*U32
  1

  0
TEXT
  5
18E
330
18C
100
AcDbEntity
  8
126
  6
Continuous
 62
     3
100
AcDbText
 10
0.0
 20
0.0
 30
0.0
 40
0.07
  1
FAUCET
 51
9.9999944
100
AcDbText
  0
TEXT
  5
18F
330
18C
100
AcDbEntity
  8
126
  6
Continuous
 62
     3
100
AcDbText
 10
0.0
 20
-0.105
 30
0.0
 40
0.07
  1
DRILLINGS
 51
9.9999944
100
AcDbText
  0
ENDBLK
  5
190
330
18C
100
AcDbEntity
  8
0
100
AcDbBlockEnd
  0
BLOCK
  5
192
330
191
100
AcDbEntity
  8
0
100
AcDbBlockBegin
  2
DRILLINGS
 70
     0
 10
0.0
 20
0.0
 30
0.0
  3
DRILLINGS
  1

  0
LINE
  5
193
330
191
100
AcDbEntity
  8
126
  6
Continuous
 62
     3
100
AcDbLine
 10
-0.4902485
 20
-0.12863287
 30
0.0
 11
-0.4902485
 21
-0.4411328700000001
 31
0.0
  0
ARC
  5
194
330
191
100
AcDbEntity
  8
126
  6
Continuous
 62
     3
100
AcDbCircle
 10
-0.3652485
 20
-0.12863287
 30
0.0
 40
0.125
100
AcDbArc
 50
90.0
 51
180.0
  0
LINE
  5
195
330
191
100
AcDbEntity
  8
126
  6
Continuous
 62
     3
100
AcDbLine
 10
-0.5214985
 20
-0.25363287
 30
0.0
 11
-0.4589985
 21
-0.25363287
 31
0.0
  0
LINE
  5
196
330
191
100
AcDbEntity
  8
126
  6
Continuous
 62
     3
100
AcDbLine
 10
-0.3652485
 20
-0.003632867
 30
0.0
 11
-0.28714735
 21
-0.003632867
 31
0.0
  0
LINE
  5
197
330
191
100
AcDbEntity
  8
126
  6
Continuous
 62
     3
100
AcDbLine
 10
-0.4589985
 20
-0.25363287
 30
0.0
 11
-0.4902485
 21
-0.4411328700000001
 31
0.0
  0
LINE
  5
198
330
191
100
AcDbEntity
  8
126
  6
Continuous
 62
     3
100
AcDbLine
 10
-0.4902485
 20
-0.4411328700000001
 30
0.0
 11
-0.5214985
 21
-0.25363287
 31
0.0
  0
INSERT
  5
199
330
191
100
AcDbEntity
  8
1
100
AcDbBlockReference
  2
*U32
 10
-0.2096213
 20
0.0146529
 30
0.0
  0
POINT
  5
19A
330
191
100
AcDbEntity
  8
1
  6
Continuous
 62
     1
100
AcDbPoint
 10
0.0
 20
0.0
 30
0.0
  0
ENDBLK
  5
19B
330
191
100
AcDbEntity
  8
0
100
AcDbBlockEnd
  0
BLOCK
  5
19D
330
19C
100
AcDbEntity
  8
0
100
AcDbBlockBegin
  2
STENCIL
 70
     0
 10
0.0
 20
0.0
 30
0.0
  3
STENCIL
  1

  0
TEXT
  5
19E
330
19C
100
AcDbEntity
  8
126
  6
Continuous
 62
     3
100
AcDbText
 10
-0.8064766
 20
-0.0347739
 30
0.0
 40
0.09
  1
ONE STENCIL ON END
 51
9.9999944
100
AcDbText
  0
POLYLINE
  5
19F
330
19C
100
AcDbEntity
  8
126
  6
Continuous
 62
     3
100
AcDb2dPolyline
 66
     1
 10
0.0
 20
0.0
 30
0.0
 70
     2
  0
VERTEX
  5
1A0
330
19F
100
AcDbEntity
  8
126
 62
     3
100
AcDbVertex
100
AcDb2dVertex
 10
-0.3489217
 20
-0.1889078
 30
0.0
  0
VERTEX
  5
1A1
330
19F
100
AcDbEntity
  8
126
 62
     3
100
AcDbVertex
100
AcDb2dVertex
 10
-0.34783366
 20
-0.18774519
 30
0.0
 42
0.0016875656
 70
     1
  0
VERTEX
  5
1A2
330
19F
100
AcDbEntity
  8
126
 62
     3
100
AcDbVertex
100
AcDb2dVertex
 10
-0.34675349
 20
-0.18657545
 30
0.0
 42
0.00169738
  0
VERTEX
  5
1A3
330
19F
100
AcDbEntity
  8
126
 62
     3
100
AcDbVertex
100
AcDb2dVertex
 10
-0.34568153
 20
-0.18539827
 30
0.0
 42
0.0016882208
 70
     1
  0
VERTEX
  5
1A4
330
19F
100
AcDbEntity
  8
126
 62
     3
100
AcDbVertex
100
AcDb2dVertex
 10
-0.34461734
 20
-0.18421405
 30
0.0
 42
0.0016576573
  0
VERTEX
  5
1A5
330
19F
100
AcDbEntity
  8
126
 62
     3
100
AcDbVertex
100
AcDb2dVertex
 10
-0.34356136
 20
-0.18302238
 30
0.0
 42
0.0017903983
 70
     1
  0
VERTEX
  5
1A6
330
19F
100
AcDbEntity
  8
126
 62
     3
100
AcDbVertex
100
AcDb2dVertex
 10
-0.34251457
 20
-0.18182259
 30
0.0
 42
0.0021207351
  0
VERTEX
  5
1A7
330
19F
100
AcDbEntity
  8
126
 62
     3
100
AcDbVertex
100
AcDb2dVertex
 10
-0.34147889
 20
-0.18061317
 30
0.0
 42
0.0023654652
 70
     1
  0
VERTEX
  5
1A8
330
19F
100
AcDbEntity
  8
126
 62
     3
100
AcDbVertex
100
AcDb2dVertex
 10
-0.34045505
 20
-0.17939369
 30
0.0
 42
0.0025870159
  0
VERTEX
  5
1A9
330
19F
100
AcDbEntity
  8
126
 62
     3
100
AcDbVertex
100
AcDb2dVertex
 10
-0.3394446
 20
-0.17816303
 30
0.0
 42
0.0027406613
 70
     1
  0
VERTEX
  5
1AA
330
19F
100
AcDbEntity
  8
126
 62
     3
100
AcDbVertex
100
AcDb2dVertex
 10
-0.33844779
 20
-0.17692127
 30
0.0
 42
0.0028660433
  0
VERTEX
  5
1AB
330
19F
100
AcDbEntity
  8
126
 62
     3
100
AcDbVertex
100
AcDb2dVertex
 10
-0.33746595
 20
-0.17566764
 30
0.0
 42
0.0029821912
 70
     1
  0
VERTEX
  5
1AC
330
19F
100
AcDbEntity
  8
126
 62
     3
100
AcDbVertex
100
AcDb2dVertex
 10
-0.33649923
 20
-0.17440229
 30
0.0
 42
0.0031185352
  0
VERTEX
  5
1AD
330
19F
100
AcDbEntity
  8
126
 62
     3
100
AcDbVertex
100
AcDb2dVertex
 10
-0.33554911
 20
-0.17312434
 30
0.0
 42
0.0032757678
 70
     1
  0
VERTEX
  5
1AE
330
19F
100
AcDbEntity
  8
126
 62
     3
100
AcDbVertex
100
AcDb2dVertex
 10
-0.33461611
 20
-0.17183383
 30
0.0
 42
0.003494767
  0
VERTEX
  5
1AF
330
19F
100
AcDbEntity
  8
126
 62
     3
100
AcDbVertex
100
AcDb2dVertex
 10
-0.33370222
 20
-0.17052971
 30
0.0
 42
0.0036859674
 70
     1
  0
VERTEX
  5
1B0
330
19F
100
AcDbEntity
  8
126
 62
     3
100
AcDbVertex
100
AcDb2dVertex
 10
-0.33280787
 20
-0.16921202
 30
0.0
 42
0.0038976037
  0
VERTEX
  5
1B1
330
19F
100
AcDbEntity
  8
126
 62
     3
100
AcDbVertex
100
AcDb2dVertex
 10
-0.33193516
 20
-0.16787968
 30
0.0
 42
0.004113722
 70
     1
  0
VERTEX
  5
1B2
330
19F
100
AcDbEntity
  8
126
 62
     3
100
AcDbVertex
100
AcDb2dVertex
 10
-0.33108481
 20
-0.16653278
 30
0.0
 42
0.0043910743
  0
VERTEX
  5
1B3
330
19F
100
AcDbEntity
  8
126
 62
     3
100
AcDbVertex
100
AcDb2dVertex
 10
-0.33025955
 20
-0.16517022
 30
0.0
 42
0.0046718136
 70
     1
  0
VERTEX
  5
1B4
330
19F
100
AcDbEntity
  8
126
 62
     3
100
AcDbVertex
100
AcDb2dVertex
 10
-0.32946051
 20
-0.1637922
 30
0.0
 42
0.0050295643
  0
VERTEX
  5
1B5
330
19F
100
AcDbEntity
  8
126
 62
     3
100
AcDbVertex
100
AcDb2dVertex
 10
-0.32869106
 20
-0.16239763
 30
0.0
 42
0.0053514603
 70
     1
  0
VERTEX
  5
1B6
330
19F
100
AcDbEntity
  8
126
 62
     3
100
AcDbVertex
100
AcDb2dVertex
 10
-0.32795223
 20
-0.16098667
 30
0.0
 42
0.0057179008
  0
VERTEX
  5
1B7
330
19F
100
AcDbEntity
  8
126
 62
     3
100
AcDbVertex
100
AcDb2dVertex
 10
-0.3272473
 20
-0.15955833
 30
0.0
 42
0.0058867532
 70
     1
  0
VERTEX
  5
1B8
330
19F
100
AcDbEntity
  8
126
 62
     3
100
AcDbVertex
100
AcDb2dVertex
 10
-0.32657565
 20
-0.15811387
 30
0.0
 42
0.0059037406
  0
VERTEX
  5
1B9
330
19F
100
AcDbEntity
  8
126
 62
     3
100
AcDbVertex
100
AcDb2dVertex
 10
-0.32593915
 20
-0.15665343
 30
0.0
 42
0.0059040154
 70
     1
  0
VERTEX
  5
1BA
330
19F
100
AcDbEntity
  8
126
 62
     3
100
AcDbVertex
100
AcDb2dVertex
 10
-0.32533671
 20
-0.15517855
 30
0.0
 42
0.0058884042
  0
VERTEX
  5
1BB
330
19F
100
AcDbEntity
  8
126
 62
     3
100
AcDbVertex
100
AcDb2dVertex
 10
-0.32477006
 20
-0.15368956
 30
0.0
 42
0.00588455
 70
     1
  0
VERTEX
  5
1BC
330
19F
100
AcDbEntity
  8
126
 62
     3
100
AcDbVertex
100
AcDb2dVertex
 10
-0.32423809
 20
-0.15218787
 30
0.0
 42
0.005891102
  0
VERTEX
  5
1BD
330
19F
100
AcDbEntity
  8
126
 62
     3
100
AcDbVertex
100
AcDb2dVertex
 10
-0.32374263
 20
-0.15067381
 30
0.0
 42
0.0059024496
 70
     1
  0
VERTEX
  5
1BE
330
19F
100
AcDbEntity
  8
126
 62
     3
100
AcDbVertex
100
AcDb2dVertex
 10
-0.32328256
 20
-0.14914868
 30
0.0
 42
0.0059209078
  0
VERTEX
  5
1BF
330
19F
100
AcDbEntity
  8
126
 62
     3
100
AcDbVertex
100
AcDb2dVertex
 10
-0.32285974
 20
-0.14761282
 30
0.0
 42
0.005938946
 70
     1
  0
VERTEX
  5
1C0
330
19F
100
AcDbEntity
  8
126
 62
     3
100
AcDbVertex
100
AcDb2dVertex
 10
-0.32247302
 20
-0.14606746
 30
0.0
 42
0.0059610461
  0
VERTEX
  5
1C1
330
19F
100
AcDbEntity
  8
126
 62
     3
100
AcDbVertex
100
AcDb2dVertex
 10
-0.32212431
 20
-0.14451304
 30
0.0
 42
0.0060036114
 70
     1
  0
VERTEX
  5
1C2
330
19F
100
AcDbEntity
  8
126
 62
     3
100
AcDbVertex
100
AcDb2dVertex
 10
-0.32181267
 20
-0.14295075
 30
0.0
 42
0.0060785989
  0
VERTEX
  5
1C3
330
19F
100
AcDbEntity
  8
126
 62
     3
100
AcDbVertex
100
AcDb2dVertex
 10
-0.32154032
 20
-0.14138116
 30
0.0
 42
0.0061478968
 70
     1
  0
VERTEX
  5
1C4
330
19F
100
AcDbEntity
  8
126
 62
     3
100
AcDbVertex
100
AcDb2dVertex
 10
-0.3213063
 20
-0.1398054
 30
0.0
 42
0.0062286886
  0
VERTEX
  5
1C5
330
19F
100
AcDbEntity
  8
126
 62
     3
100
AcDbVertex
100
AcDb2dVertex
 10
-0.32111289
 20
-0.13822411
 30
0.0
 42
0.0063177627
 70
     1
  0
VERTEX
  5
1C6
330
19F
100
AcDbEntity
  8
126
 62
     3
100
AcDbVertex
100
AcDb2dVertex
 10
-0.32095926
 20
-0.13663845
 30
0.0
 42
0.0064389366
  0
VERTEX
  5
1C7
330
19F
100
AcDbEntity
  8
126
 62
     3
100
AcDbVertex
100
AcDb2dVertex
 10
-0.32084795
 20
-0.13504924
 30
0.0
 42
0.0065613957
 70
     1
  0
VERTEX
  5
1C8
330
19F
100
AcDbEntity
  8
126
 62
     3
100
AcDbVertex
100
AcDb2dVertex
 10
-0.32077823
 20
-0.13345766
 30
0.0
 42
0.00671672
  0
VERTEX
  5
1C9
330
19F
100
AcDbEntity
  8
126
 62
     3
100
AcDbVertex
100
AcDb2dVertex
 10
-0.32075287
 20
-0.13186469
 30
0.0
 42
0.0068669276
 70
     1
  0
VERTEX
  5
1CA
330
19F
100
AcDbEntity
  8
126
 62
     3
100
AcDbVertex
100
AcDb2dVertex
 10
-0.32077117
 20
-0.13027152
 30
0.0
 42
0.0070509233
  0
VERTEX
  5
1CB
330
19F
100
AcDbEntity
  8
126
 62
     3
100
AcDbVertex
100
AcDb2dVertex
 10
-0.3208362
 20
-0.12867942
 30
0.0
 42
0.0072669167
 70
     1
  0
VERTEX
  5
1CC
330
19F
100
AcDbEntity
  8
126
 62
     3
100
AcDbVertex
100
AcDb2dVertex
 10
-0.32094772
 20
-0.12708994
 30
0.0
 42
0.0075746741
  0
VERTEX
  5
1CD
330
19F
100
AcDbEntity
  8
126
 62
     3
100
AcDbVertex
100
AcDb2dVertex
 10
-0.32110946
 20
-0.12550494
 30
0.0
 42
0.0078485226
 70
     1
  0
VERTEX
  5
1CE
330
19F
100
AcDbEntity
  8
126
 62
     3
100
AcDbVertex
100
AcDb2dVertex
 10
-0.32132106
 20
-0.12392585
 30
0.0
 42
0.0081557902
  0
VERTEX
  5
1CF
330
19F
100
AcDbEntity
  8
126
 62
     3
100
AcDbVertex
100
AcDb2dVertex
 10
-0.3215860099999999
 20
-0.12235466
 30
0.0
 42
0.0083007763
 70
     1
  0
VERTEX
  5
1D0
330
19F
100
AcDbEntity
  8
126
 62
     3
100
AcDbVertex
100
AcDb2dVertex
 10
-0.32190228
 20
-0.12079287
 30
0.0
 42
0.0083260159
  0
VERTEX
  5
1D1
330
19F
100
AcDbEntity
  8
126
 62
     3
100
AcDbVertex
100
AcDb2dVertex
 10
-0.32227182
 20
-0.11924283
 30
0.0
 42
0.0083668648
 70
     1
  0
VERTEX
  5
1D2
330
19F
100
AcDbEntity
  8
126
 62
     3
100
AcDbVertex
100
AcDb2dVertex
 10
-0.32269239
 20
-0.11770598
 30
0.0
 42
0.0084339811
  0
VERTEX
  5
1D3
330
19F
100
AcDbEntity
  8
126
 62
     3
100
AcDbVertex
100
AcDb2dVertex
 10
-0.32316571
 20
-0.11618471
 30
0.0
 42
0.0083390699
 70
     1
  0
VERTEX
  5
1D4
330
19F
100
AcDbEntity
  8
126
 62
     3
100
AcDbVertex
100
AcDb2dVertex
 10
-0.3236879
 20
-0.11467948
 30
0.0
 42
0.0080533368
  0
VERTEX
  5
1D5
330
19F
100
AcDbEntity
  8
126
 62
     3
100
AcDbVertex
100
AcDb2dVertex
 10
-0.32425878
 20
-0.11319195
 30
0.0
 42
0.0077937986
 70
     1
  0
VERTEX
  5
1D6
330
19F
100
AcDbEntity
  8
126
 62
     3
100
AcDbVertex
100
AcDb2dVertex
 10
-0.32487416
 20
-0.11172233
 30
0.0
 42
0.0074968979
  0
VERTEX
  5
1D7
330
19F
100
AcDbEntity
  8
126
 62
     3
100
AcDbVertex
100
AcDb2dVertex
 10
-0.32553344
 20
-0.11027218
 30
0.0
 42
0.007177452
 70
     1
  0
VERTEX
  5
1D8
330
19F
100
AcDbEntity
  8
126
 62
     3
100
AcDbVertex
100
AcDb2dVertex
 10
-0.3262322
 20
-0.10884072
 30
0.0
 42
0.0067461171
  0
VERTEX
  5
1D9
330
19F
100
AcDbEntity
  8
126
 62
     3
100
AcDbVertex
100
AcDb2dVertex
 10
-0.32696919
 20
-0.10742852
 30
0.0
 42
0.0063467136
 70
     1
  0
VERTEX
  5
1DA
330
19F
100
AcDbEntity
  8
126
 62
     3
100
AcDbVertex
100
AcDb2dVertex
 10
-0.32773994
 20
-0.10603449
 30
0.0
 42
0.005878378
  0
VERTEX
  5
1DB
330
19F
100
AcDbEntity
  8
126
 62
     3
100
AcDbVertex
100
AcDb2dVertex
 10
-0.32854286
 20
-0.10465893
 30
0.0
 42
0.0054770998
 70
     1
  0
VERTEX
  5
1DC
330
19F
100
AcDbEntity
  8
126
 62
     3
100
AcDbVertex
100
AcDb2dVertex
 10
-0.32937404
 20
-0.10330038
 30
0.0
 42
0.0050366531
  0
VERTEX
  5
1DD
330
19F
100
AcDbEntity
  8
126
 62
     3
100
AcDbVertex
100
AcDb2dVertex
 10
-0.33023199
 20
-0.10195867
 30
0.0
 42
0.0046429456
 70
     1
  0
VERTEX
  5
1DE
330
19F
100
AcDbEntity
  8
126
 62
     3
100
AcDbVertex
100
AcDb2dVertex
 10
-0.33111315
 20
-0.1006321
 30
0.0
 42
0.004194387
  0
VERTEX
  5
1DF
330
19F
100
AcDbEntity
  8
126
 62
     3
100
AcDbVertex
100
AcDb2dVertex
 10
-0.33201597
 20
-0.099320193
 30
0.0
 42
0.0038173682
 70
     1
  0
VERTEX
  5
1E0
330
19F
100
AcDbEntity
  8
126
 62
     3
100
AcDbVertex
100
AcDb2dVertex
 10
-0.33293734
 20
-0.098021331
 30
0.0
 42
0.0034154448
  0
VERTEX
  5
1E1
330
19F
100
AcDbEntity
  8
126
 62
     3
100
AcDbVertex
100
AcDb2dVertex
 10
-0.33387586
 20
-0.096734974
 30
0.0
 42
0.0030920202
 70
     1
  0
VERTEX
  5
1E2
330
19F
100
AcDbEntity
  8
126
 62
     3
100
AcDbVertex
100
AcDb2dVertex
 10
-0.33482912
 20
-0.095459552
 30
0.0
 42
0.0027630066
  0
VERTEX
  5
1E3
330
19F
100
AcDbEntity
  8
126
 62
     3
100
AcDbVertex
100
AcDb2dVertex
 10
-0.33579604
 20
-0.094194393
 30
0.0
 42
0.0024634173
 70
     1
  0
VERTEX
  5
1E4
330
19F
100
AcDbEntity
  8
126
 62
     3
100
AcDbVertex
100
AcDb2dVertex
 10
-0.33677434
 20
-0.092938003
 30
0.0
 42
0.0021173183
  0
VERTEX
  5
1E5
330
19F
100
AcDbEntity
  8
126
 62
     3
100
AcDbVertex
100
AcDb2dVertex
 10
-0.33776283
 20
-0.0916897
 30
0.0
 42
0.0018943933
 70
     1
  0
VERTEX
  5
1E6
330
19F
100
AcDbEntity
  8
126
 62
     3
100
AcDbVertex
100
AcDb2dVertex
 10
-0.33876019
 20
-0.090448535
 30
0.0
 42
0.0017372298
  0
VERTEX
  5
1E7
330
19F
100
AcDbEntity
  8
126
 62
     3
100
AcDbVertex
100
AcDb2dVertex
 10
-0.33976601
 20
-0.089214241
 30
0.0
 42
0.0016003277
 70
     1
  0
VERTEX
  5
1E8
330
19F
100
AcDbEntity
  8
126
 62
     3
100
AcDbVertex
100
AcDb2dVertex
 10
-0.34077923
 20
-0.087986006
 30
0.0
 42
0.0014487348
  0
VERTEX
  5
1E9
330
19F
100
AcDbEntity
  8
126
 62
     3
100
AcDbVertex
100
AcDb2dVertex
 10
-0.34179942
 20
-0.086763541
 30
0.0
 42
0.0013250744
 70
     1
  0
VERTEX
  5
1EA
330
19F
100
AcDbEntity
  8
126
 62
     3
100
AcDbVertex
100
AcDb2dVertex
 10
-0.34282564
 20
-0.085546186
 30
0.0
 42
0.0011978886
  0
VERTEX
  5
1EB
330
19F
100
AcDbEntity
  8
126
 62
     3
100
AcDbVertex
100
AcDb2dVertex
 10
-0.34385757
 20
-0.084333732
 30
0.0
 42
0.0011142333
 70
     1
  0
VERTEX
  5
1EC
330
19F
100
AcDbEntity
  8
126
 62
     3
100
AcDbVertex
100
AcDb2dVertex
 10
-0.34489473
 20
-0.083125617
 30
0.0
 42
0.001052335
  0
VERTEX
  5
1ED
330
19F
100
AcDbEntity
  8
126
 62
     3
100
AcDbVertex
100
AcDb2dVertex
 10
-0.34593705
 20
-0.081921742
 30
0.0
 42
0.0009888434
 70
     1
  0
VERTEX
  5
1EE
330
19F
100
AcDbEntity
  8
126
 62
     3
100
AcDbVertex
100
AcDb2dVertex
 10
-0.34698358
 20
-0.080722083
 30
0.0
 42
0.0009088413
  0
VERTEX
  5
1EF
330
19F
100
AcDbEntity
  8
126
 62
     3
100
AcDbVertex
100
AcDb2dVertex
 10
-0.34803404
 20
-0.079526672
 30
0.0
 42
0.0008582744
 70
     1
  0
VERTEX
  5
1F0
330
19F
100
AcDbEntity
  8
126
 62
     3
100
AcDbVertex
100
AcDb2dVertex
 10
-0.34908952
 20
-0.078333521
 30
0.0
 42
0.000819838
  0
VERTEX
  5
1F1
330
19F
100
AcDbEntity
  8
126
 62
     3
100
AcDbVertex
100
AcDb2dVertex
 10
-0.35015049
 20
-0.077142026
 30
0.0
 42
0.0007649356
 70
     1
  0
VERTEX
  5
1F2
330
19F
100
AcDbEntity
  8
126
 62
     3
100
AcDbVertex
100
AcDb2dVertex
 10
-0.35121056
 20
-0.075958386
 30
0.0
 42
0.0006948054
  0
VERTEX
  5
1F3
330
19F
100
AcDbEntity
  8
126
 62
     3
100
AcDbVertex
100
AcDb2dVertex
 10
-0.35226764
 20
-0.074784818
 30
0.0
 42
0.0007108921
 70
     1
  0
VERTEX
  5
1F4
330
19F
100
AcDbEntity
  8
126
 62
     3
100
AcDbVertex
100
AcDb2dVertex
 10
-0.35334522
 20
-0.073595481
 30
0.0
 42
0.0007592581
  0
VERTEX
  5
1F5
330
19F
100
AcDbEntity
  8
126
 62
     3
100
AcDbVertex
100
AcDb2dVertex
 10
-0.35445142
 20
-0.07238151
 30
0.0
 42
0.000569854
 70
     1
  0
VERTEX
  5
1F6
330
19F
100
AcDbEntity
  8
126
 62
     3
100
AcDbVertex
100
AcDb2dVertex
 10
-0.35549181
 20
-0.071243425
 30
0.0
 42
0.0002524421
  0
VERTEX
  5
1F7
330
19F
100
AcDbEntity
  8
126
 62
     3
100
AcDbVertex
100
AcDb2dVertex
 10
-0.35643378
 20
-0.070215806
 30
0.0
 42
0.0006219319
 70
     1
  0
VERTEX
  5
1F8
330
19F
100
AcDbEntity
  8
126
 62
     3
100
AcDbVertex
100
AcDb2dVertex
 10
-0.3576481
 20
-0.068900266
 30
0.0
 42
0.0009193069
  0
VERTEX
  5
1F9
330
19F
100
AcDbEntity
  8
126
 62
     3
100
AcDbVertex
100
AcDb2dVertex
 10
-0.35952394
 20
-0.066879141
 30
0.0
 42
0.0004401867
 70
     1
  0
VERTEX
  5
1FA
330
19F
100
AcDbEntity
  8
126
 62
     3
100
AcDbVertex
100
AcDb2dVertex
 10
-0.36198385
 20
-0.064235399
 30
0.0
 42
0.000241323
  0
SEQEND
  5
1FB
330
19F
100
AcDbEntity
  8
126
 62
     3
  0
LINE
  5
1FC
330
19C
100
AcDbEntity
  8
126
  6
Continuous
 62
     3
100
AcDbLine
 10
-0.4714146
 20
-0.3114007
 30
0.0
 11
-0.3489217
 21
-0.1889078
 31
0.0
  0
LINE
  5
1FD
330
19C
100
AcDbEntity
  8
126
  6
Continuous
 62
     3
100
AcDbLine
 10
-0.34767091
 20
-0.22301235
 30
0.0
 11
-0.4714146
 21
-0.3114007
 31
0.0
  0
LINE
  5
1FE
330
19C
100
AcDbEntity
  8
126
  6
Continuous
 62
     3
100
AcDbLine
 10
-0.4714146
 20
-0.3114007
 30
0.0
 11
-0.38302625
 21
-0.18765701
 31
0.0
  0
LINE
  5
1FF
330
19C
100
AcDbEntity
  8
126
  6
Continuous
 62
     3
100
AcDbLine
 10
-0.34767091
 20
-0.22301235
 30
0.0
 11
-0.38302625
 21
-0.18765701
 31
0.0
  0
POINT
  5
200
330
19C
100
AcDbEntity
  8
1
  6
Continuous
 62
     1
100
AcDbPoint
 10
0.0
 20
0.0
 30
0.0
  0
ENDBLK
  5
201
330
19C
100
AcDbEntity
  8
0
100
AcDbBlockEnd
  0
BLOCK
  5
203
330
202
100
AcDbEntity
  8
0
100
AcDbBlockBegin
  2
*U35
 70
     1
 10
0.0
 20
0.0
 30
0.0
  3
*U35
  1

  0
TEXT
  5
204
330
202
100
AcDbEntity
  8
1
  6
Continuous
 62
     3
100
AcDbText
 10
0.0
 20
0.0
 30
0.0
 40
0.1
  1
STANDARD FAUCET 
100
AcDbText
  0
TEXT
  5
205
330
202
100
AcDbEntity
  8
1
  6
Continuous
 62
     3
100
AcDbText
 10
0.0
 20
-0.15
 30
0.0
 40
0.1
  1
HOLE CONFIGURATIONS
100
AcDbText
  0
ENDBLK
  5
206
330
202
100
AcDbEntity
  8
0
100
AcDbBlockEnd
  0
BLOCK
  5
208
330
207
100
AcDbEntity
  8
0
100
AcDbBlockBegin
  2
*U36
 70
     1
 10
0.0
 20
0.0
 30
0.0
  3
*U36
  1

  0
TEXT
  5
209
330
207
100
AcDbEntity
  8
1
  6
Continuous
 62
     1
100
AcDbText
 10
-1.016666666666666
 20
-0.0625
 30
0.0
 40
0.125
  1
REFERENCE DRAWING
 72
     1
 11
0.0
 21
0.0
 31
0.0
100
AcDbText
 73
     2
  0
TEXT
  5
20A
330
207
100
AcDbEntity
  8
1
  6
Continuous
 62
     1
100
AcDbText
 10
-0.9541666666666667
 20
-0.25
 30
0.0
 40
0.125
  1
OR SPECIFICATION
 72
     1
 11
0.0
 21
-0.1875
 31
0.0
100
AcDbText
 73
     2
  0
ENDBLK
  5
20B
330
207
100
AcDbEntity
  8
0
100
AcDbBlockEnd
  0
BLOCK
  5
20D
330
20C
100
AcDbEntity
  8
0
100
AcDbBlockBegin
  2
5
 70
     0
 10
0.0
 20
0.0
 30
0.0
  3
5
  1

  0
LINE
  5
20E
330
20C
100
AcDbEntity
  8
1
  6
Continuous
 62
     6
100
AcDbLine
 10
-4.678945699999999
 20
3.441034999999999
 30
0.0
 11
-4.678945699999999
 21
1.821060799999999
 31
0.0
  0
LINE
  5
20F
330
20C
100
AcDbEntity
  8
1
  6
Continuous
 62
     6
100
AcDbLine
 10
-4.678945699999999
 20
3.441034999999999
 30
0.0
 11
-0.17894574
 21
3.441034999999999
 31
0.0
  0
LINE
  5
210
330
20C
100
AcDbEntity
  8
1
  6
Continuous
 62
     6
100
AcDbLine
 10
-4.678945699999999
 20
2.941034999999999
 30
0.0
 11
-0.17894574
 21
2.941034999999999
 31
0.0
  0
LINE
  5
211
330
20C
100
AcDbEntity
  8
1
  6
Continuous
 62
     6
100
AcDbLine
 10
-4.678945699999999
 20
2.691034999999999
 30
0.0
 11
-0.17894574
 21
2.691034999999999
 31
0.0
  0
LINE
  5
212
330
20C
100
AcDbEntity
  8
1
  6
Continuous
 62
     6
100
AcDbLine
 10
-4.678945699999999
 20
2.441034999999999
 30
0.0
 11
-0.17894574
 21
2.441034999999999
 31
0.0
  0
TEXT
  5
213
330
20C
100
AcDbEntity
  8
1
  6
Continuous
 62
     3
100
AcDbText
 10
-4.6268779
 20
2.7687066
 30
0.0
 40
0.1
  1
LABEL PLACEMENT
100
AcDbText
  0
TEXT
  5
214
330
20C
100
AcDbEntity
  8
1
  6
Continuous
 62
     3
100
AcDbText
 10
-4.6332399
 20
2.5166096
 30
0.0
 40
0.1
  1
SOUND DEADENER SPEC.
100
AcDbText
  0
LINE
  5
215
330
20C
100
AcDbEntity
  8
1
  6
Continuous
 62
     6
100
AcDbLine
 10
-2.3664457
 20
1.821060799999999
 30
0.0
 11
-2.3664457
 21
3.441034999999999
 31
0.0
  0
TEXT
  5
216
330
20C
100
AcDbEntity
  8
1
  6
Continuous
 62
     3
100
AcDbText
 10
-2.2903582
 20
2.766035
 30
0.0
 40
0.1
  1
92003
 11
-2.2903582
 21
2.816034999999999
 31
0.0
100
AcDbText
 73
     2
  0
TEXT
  5
217
330
20C
100
AcDbEntity
  8
1
  6
Continuous
 62
     3
100
AcDbText
 10
-2.2903582
 20
2.516035
 30
0.0
 40
0.1
  1
92002
 11
-2.2903582
 21
2.566034999999999
 31
0.0
100
AcDbText
 73
     2
  0
TEXT
  5
218
330
20C
100
AcDbEntity
  8
1
  6
Continuous
 62
     1
100
AcDbText
 10
-4.461306066666667
 20
3.1538976
 30
0.0
 40
0.125
  1
PRODUCT FEATURES
 72
     1
 11
-3.5071394
 21
3.2163976
 31
0.0
100
AcDbText
 73
     2
  0
LINE
  5
219
330
20C
100
AcDbEntity
  8
1
  6
Continuous
 62
     6
100
AcDbLine
 10
-4.678945699999999
 20
2.972284999999999
 30
0.0
 11
-0.17894574
 21
2.972284999999999
 31
0.0
  0
LINE
  5
21A
330
20C
100
AcDbEntity
  8
1
  6
Continuous
 62
     6
100
AcDbLine
 10
-0.17894574
 20
1.821060799999999
 30
0.0
 11
-0.17894574
 21
3.441034999999999
 31
0.0
  0
TEXT
  5
21B
330
20C
100
AcDbEntity
  8
1
  6
Continuous
 62
     3
100
AcDbText
 10
-2.2903582
 20
1.957415799999999
 30
0.0
 40
0.1
  1
WESSANHOLECHART
 11
-2.2903582
 21
2.007415799999999
 31
0.0
100
AcDbText
 73
     2
  0
TEXT
  5
21C
330
20C
100
AcDbEntity
  8
1
  6
Continuous
 62
     3
100
AcDbText
 10
-4.6332399
 20
2.2666096
 30
0.0
 40
0.1
  1
FINISH SPEC.
100
AcDbText
  0
TEXT
  5
21D
330
20C
100
AcDbEntity
  8
1
  6
Continuous
 62
     3
100
AcDbText
 10
-2.2903582
 20
2.266035
 30
0.0
 40
0.1
  1
92001
 11
-2.2903582
 21
2.316034999999999
 31
0.0
100
AcDbText
 73
     2
  0
LINE
  5
21E
330
20C
100
AcDbEntity
  8
1
  6
Continuous
 62
     6
100
AcDbLine
 10
-4.678945699999999
 20
2.191034999999999
 30
0.0
 11
-0.17894574
 21
2.191034999999999
 31
0.0
  0
LINE
  5
21F
330
20C
100
AcDbEntity
  8
1
  6
Continuous
 62
     6
100
AcDbLine
 10
-4.678945699999999
 20
1.821060799999999
 30
0.0
 11
-0.17894574
 21
1.821060799999999
 31
0.0
  0
INSERT
  5
220
330
20C
100
AcDbEntity
  8
1
100
AcDbBlockReference
  2
*U35
 10
-4.6281879
 20
2.0379038
 30
0.0
  0
INSERT
  5
221
330
20C
100
AcDbEntity
  8
1
100
AcDbBlockReference
  2
*U36
 10
-1.271253699999999
 20
3.309379499999999
 30
0.0
  0
POINT
  5
222
330
20C
100
AcDbEntity
  8
1
  6
Continuous
 62
     1
100
AcDbPoint
 10
0.0
 20
0.0
 30
0.0
  0
ENDBLK
  5
223
330
20C
100
AcDbEntity
  8
0
100
AcDbBlockEnd
  0
BLOCK
  5
225
330
224
100
AcDbEntity
  8
0
100
AcDbBlockBegin
  2
*U38
 70
     1
 10
0.0
 20
0.0
 30
0.0
  3
*U38
  1

  0
TEXT
  5
226
330
224
100
AcDbEntity
  8
1
  6
Continuous
 62
     3
100
AcDbText
 10
0.0
 20
-0.09
 30
0.0
 40
0.09
  1
REL - ECN BV02187 26NOV02
 41
0.85
 11
0.0
 21
0.0
 31
0.0
100
AcDbText
 73
     3
  0
TEXT
  5
227
330
224
100
AcDbEntity
  8
1
  6
Continuous
 62
     3
100
AcDbText
 10
0.0
 20
-0.225
 30
0.0
 40
0.09
  1
A - ECN BV03045 04FEB03
 41
0.85
 11
0.0
 21
-0.135
 31
0.0
100
AcDbText
 73
     3
  0
ENDBLK
  5
228
330
224
100
AcDbEntity
  8
0
100
AcDbBlockEnd
  0
BLOCK
  5
22A
330
229
100
AcDbEntity
  8
0
100
AcDbBlockBegin
  2
*U39
 70
     1
 10
0.0
 20
0.0
 30
0.0
  3
*U39
  1

  0
TEXT
  5
22B
330
229
100
AcDbEntity
  8
126
  6
Continuous
 62
     3
100
AcDbText
 10
-1.038666666666666
 20
-0.0475
 30
0.0
 40
0.095
  1
.035 MATERIAL THICKNESS
 51
359.9999958057
 72
     1
 11
0.0
 21
0.0
 31
0.0
100
AcDbText
 73
     2
  0
TEXT
  5
22C
330
229
100
AcDbEntity
  8
126
  6
Continuous
 62
     3
100
AcDbText
 10
-1.162166666666667
 20
-0.19
 30
0.0
 40
0.095
  1
TYPE 301Cu STAINLESS STEEL
 51
359.9999958057
 72
     1
 11
0.0
 21
-0.1425
 31
0.0
100
AcDbText
 73
     2
  0
ENDBLK
  5
22D
330
229
100
AcDbEntity
  8
0
100
AcDbBlockEnd
  0
BLOCK
  5
22F
330
22E
100
AcDbEntity
  8
0
100
AcDbBlockBegin
  2
*U40
 70
     1
 10
0.0
 20
0.0
 30
0.0
  3
*U40
  1

  0
TEXT
  5
230
330
22E
100
AcDbEntity
  8
1
  6
Continuous
 62
     3
100
AcDbText
 10
-1.314166666666666
 20
-0.0475
 30
0.0
 40
0.095
  1
SEE REF. DRAWING NO. 92001 FOR
 72
     1
 11
0.0
 21
0.0
 31
0.0
100
AcDbText
 73
     2
  0
TEXT
  5
231
330
22E
100
AcDbEntity
  8
1
  6
Continuous
 62
     3
100
AcDbText
 10
-1.323666666666667
 20
-0.19
 30
0.0
 40
0.095
  1
PRODUCT FINISH SPECIFICATIONS
 72
     1
 11
0.0
 21
-0.1425
 31
0.0
100
AcDbText
 73
     2
  0
TEXT
  5
232
330
22E
100
AcDbEntity
  8
1
  6
Continuous
 62
     3
100
AcDbText
 10
-0.0285
 20
-0.3325
 30
0.0
 40
0.095
  1
 
 72
     1
 11
0.0
 21
-0.285
 31
0.0
100
AcDbText
 73
     2
  0
TEXT
  5
233
330
22E
100
AcDbEntity
  8
1
  6
Continuous
 62
     3
100
AcDbText
 10
-1.314166666666666
 20
-0.475
 30
0.0
 40
0.095
  1
SEE REF. DRAWING NO. 92002 FOR
 72
     1
 11
0.0
 21
-0.4275000000000001
 31
0.0
100
AcDbText
 73
     2
  0
TEXT
  5
234
330
22E
100
AcDbEntity
  8
1
  6
Continuous
 62
     3
100
AcDbText
 10
-1.371166666666667
 20
-0.6174999999999999
 30
0.0
 40
0.095
  1
SOUND DEADENING SPECIFICATIONS
 72
     1
 11
0.0
 21
-0.57
 31
0.0
100
AcDbText
 73
     2
  0
ENDBLK
  5
235
330
22E
100
AcDbEntity
  8
0
100
AcDbBlockEnd
  0
BLOCK
  5
237
330
236
100
AcDbEntity
  8
0
100
AcDbBlockBegin
  2
1
 70
     0
 10
0.0
 20
0.0
 30
0.0
  3
1
  1

  0
TEXT
  5
238
330
236
100
AcDbEntity
  8
126
  6
Continuous
 62
     3
100
AcDbText
 10
-3.9548187
 20
1.2498451
 30
0.0
 40
0.075
  1
MATERIAL
 41
1.047619199999999
 51
359.9999958057
100
AcDbText
  0
TEXT
  5
239
330
236
100
AcDbEntity
  8
126
  6
Continuous
 62
     3
100
AcDbText
 10
-3.9715775
 20
0.8319523999999999
 30
0.0
 40
0.075
  1
FINISH
 41
1.047619099999999
 51
359.9999958057
100
AcDbText
  0
TEXT
  5
23A
330
236
100
AcDbEntity
  8
126
  6
Continuous
 62
     3
100
AcDbText
 10
0.6073713000000001
 20
0.3580120999999999
 30
0.0
 40
0.1
  1
JFM
 41
1.047619
 51
359.9999958057
100
AcDbText
  0
TEXT
  5
23B
330
236
100
AcDbEntity
  8
126
  6
Continuous
 62
     3
100
AcDbText
 10
1.6073713
 20
0.3580120999999999
 30
0.0
 40
0.1
  1
KAR
 41
1.047619
 51
359.9999958057
100
AcDbText
  0
TEXT
  5
23C
330
236
100
AcDbEntity
  8
1
  6
Continuous
 62
     3
100
AcDbText
 10
2.6921701
 20
0.172071
 30
0.0
 40
0.1
  1
28JUN02
100
AcDbText
  0
TEXT
  5
23D
330
236
100
AcDbEntity
  8
1
  6
Continuous
 62
     3
100
AcDbText
 10
0.034698604
 20
-0.1270321
 30
0.0
 40
0.09
  1
REL - ECN9939 28JUN02
100
AcDbText
  0
INSERT
  5
23E
330
236
100
AcDbEntity
  8
126
100
AcDbBlockReference
  2
*U39
 10
-1.897667799999999
 20
1.2136749
 30
0.0
  0
INSERT
  5
23F
330
236
100
AcDbEntity
  8
1
100
AcDbBlockReference
  2
*U40
 10
-1.9851022
 20
0.7324066000000001
 30
0.0
  0
POINT
  5
240
330
236
100
AcDbEntity
  8
1
  6
Continuous
 62
     1
100
AcDbPoint
 10
0.0
 20
0.0
 30
0.0
  0
ENDBLK
  5
241
330
236
100
AcDbEntity
  8
0
100
AcDbBlockEnd
  0
BLOCK
  5
265
330
264
100
AcDbEntity
  8
0
100
AcDbBlockBegin
  2
X
 70
     0
 10
0.0
 20
0.0
 30
0.0
  3
X
  1

  0
INSERT
  5
267
330
264
100
AcDbEntity
  8
1
100
AcDbBlockReference
  2
*D43
 10
0.0
 20
0.0
 30
0.0
  0
INSERT
  5
269
330
264
100
AcDbEntity
  8
1
100
AcDbBlockReference
  2
*D44
 10
0.0
 20
0.0
 30
0.0
  0
TEXT
  5
26A
330
264
100
AcDbEntity
  8
180
  6
Continuous
 62
     1
100
AcDbText
 10
-1.882375699999999
 20
-1.6295851
 30
0.0
 40
0.1875
  1
REV-A
 41
1.047619099999999
 51
359.9999958057
100
AcDbText
  0
INSERT
  5
26B
330
264
100
AcDbEntity
  8
1
100
AcDbBlockReference
  2
*U38
 10
-3.9791811
 20
-1.421326399999999
 30
0.0
  0
POINT
  5
26C
330
264
100
AcDbEntity
  8
1
  6
Continuous
 62
     1
100
AcDbPoint
 10
0.0
 20
0.0
 30
0.0
  0
ENDBLK
  5
26D
330
264
100
AcDbEntity
  8
0
100
AcDbBlockEnd
  0
BLOCK
  5
40A
330
266
100
AcDbEntity
  8
0
100
AcDbBlockBegin
  2
*D43
 70
     1
 10
0.0
 20
0.0
 30
0.0
  3
*D43
  1

  0
CIRCLE
  5
40B
330
266
100
AcDbEntity
  8
1
  6
Continuous
 62
     3
100
AcDbCircle
 10
-4.9461194
 20
5.462594799999999
 30
0.0
 40
0.08
  0
TEXT
  5
40C
330
266
100
AcDbEntity
  8
1
  6
Continuous
 62
     3
100
AcDbText
 10
-4.9811194
 20
5.427594799999999
 30
0.0
 40
0.07
  1
A
100
AcDbText
  0
ENDBLK
  5
40D
330
266
100
AcDbEntity
  8
0
100
AcDbBlockEnd
  0
BLOCK
  5
40E
330
268
100
AcDbEntity
  8
0
100
AcDbBlockBegin
  2
*D44
 70
     1
 10
0.0
 20
0.0
 30
0.0
  3
*D44
  1

  0
CIRCLE
  5
40F
330
268
100
AcDbEntity
  8
1
  6
Continuous
 62
     3
100
AcDbCircle
 10
-4.9461194
 20
7.2125948
 30
0.0
 40
0.08
  0
TEXT
  5
410
330
268
100
AcDbEntity
  8
1
  6
Continuous
 62
     3
100
AcDbText
 10
-4.9811194
 20
7.1775948
 30
0.0
 40
0.07
  1
A
100
AcDbText
  0
ENDBLK
  5
411
330
268
100
AcDbEntity
  8
0
100
AcDbBlockEnd
  0
BLOCK
  5
274
330
273
100
AcDbEntity
  8
0
100
AcDbBlockBegin
  2
J
 70
     0
 10
0.0
 20
0.0
 30
0.0
  3
J
  1

  0
TEXT
  5
275
330
273
100
AcDbEntity
  8
126
  6
Continuous
 62
     3
100
AcDbText
 10
-3.3926296
 20
-1.0291945
 30
0.0
 40
0.1
  1
JFM
 41
1.047619
 51
359.9999958057
100
AcDbText
  0
TEXT
  5
276
330
273
100
AcDbEntity
  8
126
  6
Continuous
 62
     3
100
AcDbText
 10
-2.3926296
 20
-1.0291945
 30
0.0
 40
0.1
  1
LJC
 41
1.047619
 51
359.9999958057
100
AcDbText
  0
TEXT
  5
277
330
273
100
AcDbEntity
  8
1
  6
Continuous
 62
     3
100
AcDbText
 10
-3.9791811
 20
-1.511326399999999
 30
0.0
 40
0.09
  1
REL - ECN BV02187 26NOV02
 41
0.85
 11
-3.9791811
 21
-1.421326399999999
 31
0.0
100
AcDbText
 73
     3
  0
TEXT
  5
278
330
273
100
AcDbEntity
  8
180
  6
Continuous
 62
     1
100
AcDbText
 10
-1.882375699999999
 20
-1.6295851
 30
0.0
 40
0.1875
  1
REV-REL
 41
1.047619099999999
 51
359.9999958057
100
AcDbText
  0
TEXT
  5
279
330
273
100
AcDbEntity
  8
1
  6
Continuous
 62
     3
100
AcDbText
 10
-1.3078308
 20
-1.2151356
 30
0.0
 40
0.1
  1
26NOV02
100
AcDbText
  0
POINT
  5
27A
330
273
100
AcDbEntity
  8
1
  6
Continuous
 62
     1
100
AcDbPoint
 10
0.0
 20
0.0
 30
0.0
  0
ENDBLK
  5
27B
330
273
100
AcDbEntity
  8
0
100
AcDbBlockEnd
  0
BLOCK
  5
2A4
330
2A3
100
AcDbEntity
  8
0
100
AcDbBlockBegin
  2
*U46
 70
     1
 10
0.0
 20
0.0
 30
0.0
  3
*U46
  1

  0
TEXT
  5
2A5
330
2A3
100
AcDbEntity
  8
1
  6
Continuous
 62
     3
100
AcDbText
 10
0.0
 20
-0.1
 30
0.0
 40
0.1
  1
TOLERANCES:
 11
0.0
 21
0.0
 31
0.0
100
AcDbText
 73
     3
  0
TEXT
  5
2A6
330
2A3
100
AcDbEntity
  8
1
  6
Continuous
 62
     3
100
AcDbText
 10
0.0
 20
-0.25
 30
0.0
 40
0.1
  1
LENGTH AND WIDTH OF SINK: %%p1/16
 11
0.0
 21
-0.15
 31
0.0
100
AcDbText
 73
     3
  0
TEXT
  5
2A7
330
2A3
100
AcDbEntity
  8
1
  6
Continuous
 62
     3
100
AcDbText
 10
0.0
 20
-0.4
 30
0.0
 40
0.1
  1
FLANGE SIZE: %%p1/16
 11
0.0
 21
-0.3
 31
0.0
100
AcDbText
 73
     3
  0
ENDBLK
  5
2A8
330
2A3
100
AcDbEntity
  8
0
100
AcDbBlockEnd
  0
BLOCK
  5
2AA
330
2A9
100
AcDbEntity
  8
0
100
AcDbBlockBegin
  2
WESSAN1
 70
     0
 10
0.0
 20
0.0
 30
0.0
  3
WESSAN1
  1

  0
LINE
  5
2AB
330
2A9
100
AcDbEntity
  8
1
  6
Continuous
 62
     3
100
AcDbLine
 10
-2.509982299999999
 20
-0.24394664
 30
0.0
 11
-2.514957499999999
 21
-0.24766097
 31
0.0
  0
LINE
  5
2AC
330
2A9
100
AcDbEntity
  8
1
  6
Continuous
 62
     3
100
AcDbLine
 10
-2.3717299
 20
-0.13248167
 30
0.0
 11
-2.367007299999999
 21
-0.13720427
 31
0.0
  0
LINE
  5
2AD
330
2A9
100
AcDbEntity
  8
1
  6
Continuous
 62
     3
100
AcDbLine
 10
-2.3827785
 20
-0.13248167
 30
0.0
 11
-2.373333
 21
-0.14192707
 31
0.0
  0
LINE
  5
2AE
330
2A9
100
AcDbEntity
  8
1
  6
Continuous
 62
     3
100
AcDbLine
 10
-2.393826999999999
 20
-0.13248167
 30
0.0
 11
-2.3796588
 21
-0.14664967
 31
0.0
  0
LINE
  5
2AF
330
2A9
100
AcDbEntity
  8
1
  6
Continuous
 62
     3
100
AcDbLine
 10
-2.4048756
 20
-0.13248167
 30
0.0
 11
-2.3859847
 21
-0.15137257
 31
0.0
  0
LINE
  5
2B0
330
2A9
100
AcDbEntity
  8
1
  6
Continuous
 62
     3
100
AcDbLine
 10
-2.4159241
 20
-0.13248167
 30
0.0
 11
-2.392310399999999
 21
-0.15609537
 31
0.0
  0
TEXT
  5
2B1
330
2A9
100
AcDbEntity
  8
180
  6
Continuous
 62
     1
100
AcDbText
 10
-2.098614299999999
 20
-0.25018777
 30
0.0
 40
0.15
  1
CANADA LTD.
 72
     1
 11
-1.378614299999999
 21
-0.17518777
 31
0.0
100
AcDbText
 73
     2
  0
TEXT
  5
2B2
330
2A9
100
AcDbEntity
  8
126
  6
Continuous
 62
     3
100
AcDbText
 10
-2.293187933333333
 20
-0.4068105700000001
 30
0.0
 40
0.07
  1
COLDWATER, ONTARIO
 72
     1
 11
-1.6888546
 21
-0.37181057
 31
0.0
100
AcDbText
 73
     2
  0
LINE
  5
2B3
330
2A9
100
AcDbEntity
  8
1
  6
Continuous
 62
     3
100
AcDbLine
 10
-2.4248052
 20
-0.13464887
 30
0.0
 11
-2.398636399999999
 21
-0.16081797
 31
0.0
  0
LINE
  5
2B4
330
2A9
100
AcDbEntity
  8
1
  6
Continuous
 62
     3
100
AcDbLine
 10
-2.4311312
 20
-0.13937177
 30
0.0
 11
-2.4049621
 21
-0.16554077
 31
0.0
  0
LINE
  5
2B5
330
2A9
100
AcDbEntity
  8
1
  6
Continuous
 62
     3
100
AcDbLine
 10
-2.437456899999999
 20
-0.14409457
 30
0.0
 11
-2.4112879
 21
-0.17026337
 31
0.0
  0
LINE
  5
2B6
330
2A9
100
AcDbEntity
  8
1
  6
Continuous
 62
     3
100
AcDbLine
 10
-2.4437826
 20
-0.14881717
 30
0.0
 11
-2.417613799999999
 21
-0.17498617
 31
0.0
  0
LINE
  5
2B7
330
2A9
100
AcDbEntity
  8
1
  6
Continuous
 62
     3
100
AcDbLine
 10
-2.4501086
 20
-0.15353997
 30
0.0
 11
-2.423939499999999
 21
-0.17970877
 31
0.0
  0
LINE
  5
2B8
330
2A9
100
AcDbEntity
  8
1
  6
Continuous
 62
     3
100
AcDbLine
 10
-2.456434299999999
 20
-0.15826257
 30
0.0
 11
-2.430265499999999
 21
-0.18443167
 31
0.0
  0
LINE
  5
2B9
330
2A9
100
AcDbEntity
  8
1
  6
Continuous
 62
     3
100
AcDbLine
 10
-2.462760299999999
 20
-0.16298537
 30
0.0
 11
-2.4365912
 21
-0.18915427
 31
0.0
  0
LINE
  5
2BA
330
2A9
100
AcDbEntity
  8
1
  6
Continuous
 62
     3
100
AcDbLine
 10
-2.469085999999999
 20
-0.16770797
 30
0.0
 11
-2.442916899999999
 21
-0.19387707
 31
0.0
  0
LINE
  5
2BB
330
2A9
100
AcDbEntity
  8
1
  6
Continuous
 62
     3
100
AcDbLine
 10
-2.475411699999999
 20
-0.17243087
 30
0.0
 11
-2.4492429
 21
-0.19859967
 31
0.0
  0
LINE
  5
2BC
330
2A9
100
AcDbEntity
  8
1
  6
Continuous
 62
     3
100
AcDbLine
 10
-2.4817377
 20
-0.17715347
 30
0.0
 11
-2.4555686
 21
-0.20332247
 31
0.0
  0
LINE
  5
2BD
330
2A9
100
AcDbEntity
  8
1
  6
Continuous
 62
     3
100
AcDbLine
 10
-2.488063399999999
 20
-0.18187627
 30
0.0
 11
-2.461894599999999
 21
-0.20804537
 31
0.0
  0
LINE
  5
2BE
330
2A9
100
AcDbEntity
  8
1
  6
Continuous
 62
     3
100
AcDbLine
 10
-2.4943894
 20
-0.18659907
 30
0.0
 11
-2.468220299999999
 21
-0.21276797
 31
0.0
  0
LINE
  5
2BF
330
2A9
100
AcDbEntity
  8
1
  6
Continuous
 62
     3
100
AcDbLine
 10
-2.5007151
 20
-0.19132167
 30
0.0
 11
-2.474546
 21
-0.21749077
 31
0.0
  0
LINE
  5
2C0
330
2A9
100
AcDbEntity
  8
1
  6
Continuous
 62
     3
100
AcDbLine
 10
-2.507040799999999
 20
-0.19604457
 30
0.0
 11
-2.480872
 21
-0.22221337
 31
0.0
  0
LINE
  5
2C1
330
2A9
100
AcDbEntity
  8
1
  6
Continuous
 62
     3
100
AcDbLine
 10
-2.513366799999999
 20
-0.20076717
 30
0.0
 11
-2.4871977
 21
-0.22693617
 31
0.0
  0
LINE
  5
2C2
330
2A9
100
AcDbEntity
  8
1
  6
Continuous
 62
     3
100
AcDbLine
 10
-2.6258465
 20
-0.13248167
 30
0.0
 11
-2.5125011
 21
-0.24582707
 31
0.0
  0
LINE
  5
2C3
330
2A9
100
AcDbEntity
  8
1
  6
Continuous
 62
     3
100
AcDbLine
 10
-2.636894999999999
 20
-0.13248167
 30
0.0
 11
-2.5159705
 21
-0.25340617
 31
0.0
  0
LINE
  5
2C4
330
2A9
100
AcDbEntity
  8
1
  6
Continuous
 62
     3
100
AcDbLine
 10
-2.6479436
 20
-0.13248167
 30
0.0
 11
-2.517626599999999
 21
-0.26279867
 31
0.0
  0
LINE
  5
2C5
330
2A9
100
AcDbEntity
  8
1
  6
Continuous
 62
     3
100
AcDbLine
 10
-2.6589921
 20
-0.13248167
 30
0.0
 11
-2.519282599999999
 21
-0.27219087
 31
0.0
  0
LINE
  5
2C6
330
2A9
100
AcDbEntity
  8
1
  6
Continuous
 62
     3
100
AcDbLine
 10
-2.6700407
 20
-0.13248167
 30
0.0
 11
-2.520938899999999
 21
-0.28158337
 31
0.0
  0
LINE
  5
2C7
330
2A9
100
AcDbEntity
  8
1
  6
Continuous
 62
     3
100
AcDbLine
 10
-2.6810892
 20
-0.13248167
 30
0.0
 11
-2.522594999999999
 21
-0.29097587
 31
0.0
  0
LINE
  5
2C8
330
2A9
100
AcDbEntity
  8
1
  6
Continuous
 62
     3
100
AcDbLine
 10
-2.6627186
 20
-0.16190087
 30
0.0
 11
-2.5242511
 21
-0.30036817
 31
0.0
  0
LINE
  5
2C9
330
2A9
100
AcDbEntity
  8
1
  6
Continuous
 62
     3
100
AcDbLine
 10
-2.573276299999999
 20
-0.26239137
 30
0.0
 11
-2.525907299999999
 21
-0.30976067
 31
0.0
  0
LINE
  5
2CA
330
2A9
100
AcDbEntity
  8
1
  6
Continuous
 62
     3
100
AcDbLine
 10
-2.5749324
 20
-0.27178387
 30
0.0
 11
-2.5275634
 21
-0.31915297
 31
0.0
  0
LINE
  5
2CB
330
2A9
100
AcDbEntity
  8
1
  6
Continuous
 62
     3
100
AcDbLine
 10
-2.725283499999999
 20
-0.13248167
 30
0.0
 11
-2.716887299999999
 21
-0.14087777
 31
0.0
  0
LINE
  5
2CC
330
2A9
100
AcDbEntity
  8
1
  6
Continuous
 62
     3
100
AcDbLine
 10
-2.5765887
 20
-0.28117637
 30
0.0
 11
-2.5368541
 21
-0.32091097
 31
0.0
  0
LINE
  5
2CD
330
2A9
100
AcDbEntity
  8
1
  6
Continuous
 62
     3
100
AcDbLine
 10
-2.736331999999999
 20
-0.13248167
 30
0.0
 11
-2.706429799999999
 21
-0.16238367
 31
0.0
  0
LINE
  5
2CE
330
2A9
100
AcDbEntity
  8
1
  6
Continuous
 62
     3
100
AcDbLine
 10
-2.578244799999999
 20
-0.29056867
 30
0.0
 11
-2.5479027
 21
-0.32091097
 31
0.0
  0
LINE
  5
2CF
330
2A9
100
AcDbEntity
  8
1
  6
Continuous
 62
     3
100
AcDbLine
 10
-2.7473803
 20
-0.13248167
 30
0.0
 11
-2.695972499999999
 21
-0.18388967
 31
0.0
  0
LINE
  5
2D0
330
2A9
100
AcDbEntity
  8
1
  6
Continuous
 62
     3
100
AcDbLine
 10
-2.579900799999999
 20
-0.29996117
 30
0.0
 11
-2.558950999999999
 21
-0.32091097
 31
0.0
  0
LINE
  5
2D1
330
2A9
100
AcDbEntity
  8
1
  6
Continuous
 62
     3
100
AcDbLine
 10
-2.7584289
 20
-0.13248167
 30
0.0
 11
-2.685515
 21
-0.20539557
 31
0.0
  0
LINE
  5
2D2
330
2A9
100
AcDbEntity
  8
1
  6
Continuous
 62
     3
100
AcDbLine
 10
-2.581557099999999
 20
-0.30935367
 30
0.0
 11
-2.569999499999999
 21
-0.32091097
 31
0.0
  0
LINE
  5
2D3
330
2A9
100
AcDbEntity
  8
1
  6
Continuous
 62
     3
100
AcDbLine
 10
-2.769477399999999
 20
-0.13248167
 30
0.0
 11
-2.675057499999999
 21
-0.22690167
 31
0.0
  0
LINE
  5
2D4
330
2A9
100
AcDbEntity
  8
1
  6
Continuous
 62
     3
100
AcDbLine
 10
-2.5832132
 20
-0.31874597
 30
0.0
 11
-2.581048099999999
 21
-0.32091097
 31
0.0
  0
LINE
  5
2D5
330
2A9
100
AcDbEntity
  8
1
  6
Continuous
 62
     3
100
AcDbLine
 10
-2.780526
 20
-0.13248167
 30
0.0
 11
-2.6646002
 21
-0.24840747
 31
0.0
  0
LINE
  5
2D6
330
2A9
100
AcDbEntity
  8
1
  6
Continuous
 62
     3
100
AcDbLine
 10
-2.791574499999999
 20
-0.13248167
 30
0.0
 11
-2.776763499999999
 21
-0.14729267
 31
0.0
  0
LINE
  5
2D7
330
2A9
100
AcDbEntity
  8
1
  6
Continuous
 62
     3
100
AcDbLine
 10
-2.7729152
 20
-0.15114097
 30
0.0
 11
-2.6541427
 21
-0.26991357
 31
0.0
  0
LINE
  5
2D8
330
2A9
100
AcDbEntity
  8
1
  6
Continuous
 62
     3
100
AcDbLine
 10
-2.802623099999999
 20
-0.13248167
 30
0.0
 11
-2.781919499999999
 21
-0.15318517
 31
0.0
  0
LINE
  5
2D9
330
2A9
100
AcDbEntity
  8
1
  6
Continuous
 62
     3
100
AcDbLine
 10
-2.762457899999999
 20
-0.17264687
 30
0.0
 11
-2.643685399999999
 21
-0.29141937
 31
0.0
  0
LINE
  5
2DA
330
2A9
100
AcDbEntity
  8
1
  6
Continuous
 62
     3
100
AcDbLine
 10
-2.813030799999999
 20
-0.13312257
 30
0.0
 11
-2.787075299999999
 21
-0.15907777
 31
0.0
  0
LINE
  5
2DB
330
2A9
100
AcDbEntity
  8
1
  6
Continuous
 62
     3
100
AcDbLine
 10
-2.7520004
 20
-0.19415297
 30
0.0
 11
-2.6332279
 21
-0.31292547
 31
0.0
  0
LINE
  5
2DC
330
2A9
100
AcDbEntity
  8
1
  6
Continuous
 62
     3
100
AcDbLine
 10
-2.8181866
 20
-0.13901507
 30
0.0
 11
-2.792231399999999
 21
-0.16497047
 31
0.0
  0
LINE
  5
2DD
330
2A9
100
AcDbEntity
  8
1
  6
Continuous
 62
     3
100
AcDbLine
 10
-2.7415429
 20
-0.21565877
 30
0.0
 11
-2.6362909
 21
-0.32091097
 31
0.0
  0
LINE
  5
2DE
330
2A9
100
AcDbEntity
  8
1
  6
Continuous
 62
     3
100
AcDbLine
 10
-2.8233426
 20
-0.14490777
 30
0.0
 11
-2.797387399999999
 21
-0.17086297
 31
0.0
  0
LINE
  5
2DF
330
2A9
100
AcDbEntity
  8
1
  6
Continuous
 62
     3
100
AcDbLine
 10
-2.7310856
 20
-0.23716487
 30
0.0
 11
-2.647339399999999
 21
-0.32091097
 31
0.0
  0
LINE
  5
2E0
330
2A9
100
AcDbEntity
  8
1
  6
Continuous
 62
     3
100
AcDbLine
 10
-2.828498699999999
 20
-0.15080027
 30
0.0
 11
-2.8025435
 21
-0.17675547
 31
0.0
  0
LINE
  5
2E1
330
2A9
100
AcDbEntity
  8
1
  6
Continuous
 62
     3
100
AcDbLine
 10
-2.721387899999999
 20
-0.25791107
 30
0.0
 11
-2.658387999999999
 21
-0.32091097
 31
0.0
  0
LINE
  5
2E2
330
2A9
100
AcDbEntity
  8
1
  6
Continuous
 62
     3
100
AcDbLine
 10
-2.8336547
 20
-0.15669287
 30
0.0
 11
-2.807699299999999
 21
-0.18264807
 31
0.0
  0
LINE
  5
2E3
330
2A9
100
AcDbEntity
  8
1
  6
Continuous
 62
     3
100
AcDbLine
 10
-2.7324365
 20
-0.25791107
 30
0.0
 11
-2.6694365
 21
-0.32091097
 31
0.0
  0
LINE
  5
2E4
330
2A9
100
AcDbEntity
  8
1
  6
Continuous
 62
     3
100
AcDbLine
 10
-2.8388105
 20
-0.16258537
 30
0.0
 11
-2.812855299999999
 21
-0.18854077
 31
0.0
  0
LINE
  5
2E5
330
2A9
100
AcDbEntity
  8
1
  6
Continuous
 62
     3
100
AcDbLine
 10
-2.743484999999999
 20
-0.25791107
 30
0.0
 11
-2.717109999999999
 21
-0.28428587
 31
0.0
  0
LINE
  5
2E6
330
2A9
100
AcDbEntity
  8
1
  6
Continuous
 62
     3
100
AcDbLine
 10
-2.699713299999999
 20
-0.30168257
 30
0.0
 11
-2.6804851
 21
-0.32091097
 31
0.0
  0
LINE
  5
2E7
330
2A9
100
AcDbEntity
  8
1
  6
Continuous
 62
     3
100
AcDbLine
 10
-2.843966599999999
 20
-0.16847787
 30
0.0
 11
-2.818011399999999
 21
-0.19443327
 31
0.0
  0
LINE
  5
2E8
330
2A9
100
AcDbEntity
  8
1
  6
Continuous
 62
     3
100
AcDbLine
 10
-2.754533599999999
 20
-0.25791107
 30
0.0
 11
-2.728158499999999
 21
-0.28428587
 31
0.0
  0
LINE
  5
2E9
330
2A9
100
AcDbEntity
  8
1
  6
Continuous
 62
     3
100
AcDbLine
 10
-2.8491226
 20
-0.17437057
 30
0.0
 11
-2.823167399999999
 21
-0.20032577
 31
0.0
  0
LINE
  5
2EA
330
2A9
100
AcDbEntity
  8
1
  6
Continuous
 62
     3
100
AcDbLine
 10
-2.765582199999999
 20
-0.25791107
 30
0.0
 11
-2.739207099999999
 21
-0.28428587
 31
0.0
  0
LINE
  5
2EB
330
2A9
100
AcDbEntity
  8
1
  6
Continuous
 62
     3
100
AcDbLine
 10
-2.8542786
 20
-0.18026317
 30
0.0
 11
-2.8283232
 21
-0.20621837
 31
0.0
  0
LINE
  5
2EC
330
2A9
100
AcDbEntity
  8
1
  6
Continuous
 62
     3
100
AcDbLine
 10
-2.7766307
 20
-0.25791107
 30
0.0
 11
-2.750255699999999
 21
-0.28428587
 31
0.0
  0
LINE
  5
2ED
330
2A9
100
AcDbEntity
  8
1
  6
Continuous
 62
     3
100
AcDbLine
 10
-2.859434399999999
 20
-0.18615567
 30
0.0
 11
-2.8334792
 21
-0.21211087
 31
0.0
  0
LINE
  5
2EE
330
2A9
100
AcDbEntity
  8
1
  6
Continuous
 62
     3
100
AcDbLine
 10
-2.787679299999999
 20
-0.25791107
 30
0.0
 11
-2.7613042
 21
-0.28428587
 31
0.0
  0
LINE
  5
2EF
330
2A9
100
AcDbEntity
  8
1
  6
Continuous
 62
     3
100
AcDbLine
 10
-2.864590499999999
 20
-0.19204817
 30
0.0
 11
-2.838635299999999
 21
-0.21800357
 31
0.0
  0
LINE
  5
2F0
330
2A9
100
AcDbEntity
  8
1
  6
Continuous
 62
     3
100
AcDbLine
 10
-2.798727799999999
 20
-0.25791107
 30
0.0
 11
-2.772352799999999
 21
-0.28428587
 31
0.0
  0
LINE
  5
2F1
330
2A9
100
AcDbEntity
  8
1
  6
Continuous
 62
     3
100
AcDbLine
 10
-2.8697465
 20
-0.19794087
 30
0.0
 11
-2.843791099999999
 21
-0.22389607
 31
0.0
  0
LINE
  5
2F2
330
2A9
100
AcDbEntity
  8
1
  6
Continuous
 62
     3
100
AcDbLine
 10
-2.8097764
 20
-0.25791107
 30
0.0
 11
-2.783401299999999
 21
-0.28428587
 31
0.0
  0
LINE
  5
2F3
330
2A9
100
AcDbEntity
  8
1
  6
Continuous
 62
     3
100
AcDbLine
 10
-2.874902299999999
 20
-0.20383347
 30
0.0
 11
-2.8489471
 21
-0.22978867
 31
0.0
  0
LINE
  5
2F4
330
2A9
100
AcDbEntity
  8
1
  6
Continuous
 62
     3
100
AcDbLine
 10
-2.820824899999999
 20
-0.25791107
 30
0.0
 11
-2.7944499
 21
-0.28428587
 31
0.0
  0
LINE
  5
2F5
330
2A9
100
AcDbEntity
  8
1
  6
Continuous
 62
     3
100
AcDbLine
 10
-2.880058399999999
 20
-0.20972597
 30
0.0
 11
-2.8541032
 21
-0.23568117
 31
0.0
  0
LINE
  5
2F6
330
2A9
100
AcDbEntity
  8
1
  6
Continuous
 62
     3
100
AcDbLine
 10
-2.8318735
 20
-0.25791107
 30
0.0
 11
-2.805498399999999
 21
-0.28428587
 31
0.0
  0
LINE
  5
2F7
330
2A9
100
AcDbEntity
  8
1
  6
Continuous
 62
     3
100
AcDbLine
 10
-2.9683512
 20
-0.13248167
 30
0.0
 11
-2.965367399999999
 21
-0.13546547
 31
0.0
  0
LINE
  5
2F8
330
2A9
100
AcDbEntity
  8
1
  6
Continuous
 62
     3
100
AcDbLine
 10
-2.8852144
 20
-0.21561847
 30
0.0
 11
-2.859259199999999
 21
-0.24157387
 31
0.0
  0
LINE
  5
2F9
330
2A9
100
AcDbEntity
  8
1
  6
Continuous
 62
     3
100
AcDbLine
 10
-2.842922
 20
-0.25791107
 30
0.0
 11
-2.816546999999999
 21
-0.28428587
 31
0.0
  0
LINE
  5
2FA
330
2A9
100
AcDbEntity
  8
1
  6
Continuous
 62
     3
100
AcDbLine
 10
-2.9793997
 20
-0.13248167
 30
0.0
 11
-2.972416899999999
 21
-0.13946447
 31
0.0
  0
LINE
  5
2FB
330
2A9
100
AcDbEntity
  8
1
  6
Continuous
 62
     3
100
AcDbLine
 10
-2.890370399999999
 20
-0.22151097
 30
0.0
 11
-2.864415
 21
-0.24746637
 31
0.0
  0
LINE
  5
2FC
330
2A9
100
AcDbEntity
  8
1
  6
Continuous
 62
     3
100
AcDbLine
 10
-2.8539706
 20
-0.25791107
 30
0.0
 11
-2.8275955
 21
-0.28428587
 31
0.0
  0
LINE
  5
2FD
330
2A9
100
AcDbEntity
  8
1
  6
Continuous
 62
     3
100
AcDbLine
 10
-2.990448299999999
 20
-0.13248167
 30
0.0
 11
-2.9794665
 21
-0.14346347
 31
0.0
  0
LINE
  5
2FE
330
2A9
100
AcDbEntity
  8
1
  6
Continuous
 62
     3
100
AcDbLine
 10
-2.8955262
 20
-0.22740377
 30
0.0
 11
-2.869571
 21
-0.25335897
 31
0.0
  0
LINE
  5
2FF
330
2A9
100
AcDbEntity
  8
1
  6
Continuous
 62
     3
100
AcDbLine
 10
-2.865018899999999
 20
-0.25791107
 30
0.0
 11
-2.8386441
 21
-0.28428587
 31
0.0
  0
LINE
  5
300
330
2A9
100
AcDbEntity
  8
1
  6
Continuous
 62
     3
100
AcDbLine
 10
-3.001496899999999
 20
-0.13248167
 30
0.0
 11
-2.986515799999999
 21
-0.14746267
 31
0.0
  0
LINE
  5
301
330
2A9
100
AcDbEntity
  8
1
  6
Continuous
 62
     3
100
AcDbLine
 10
-2.900682299999999
 20
-0.23329627
 30
0.0
 11
-2.8496927
 21
-0.28428587
 31
0.0
  0
LINE
  5
302
330
2A9
100
AcDbEntity
  8
1
  6
Continuous
 62
     3
100
AcDbLine
 10
-3.012545399999999
 20
-0.13248167
 30
0.0
 11
-2.993565399999999
 21
-0.15146167
 31
0.0
  0
LINE
  5
303
330
2A9
100
AcDbEntity
  8
1
  6
Continuous
 62
     3
100
AcDbLine
 10
-2.905838299999999
 20
-0.23918877
 30
0.0
 11
-2.8607412
 21
-0.28428587
 31
0.0
  0
LINE
  5
304
330
2A9
100
AcDbEntity
  8
1
  6
Continuous
 62
     3
100
AcDbLine
 10
-3.023593999999999
 20
-0.13248167
 30
0.0
 11
-3.000615
 21
-0.15546067
 31
0.0
  0
LINE
  5
305
330
2A9
100
AcDbEntity
  8
1
  6
Continuous
 62
     3
100
AcDbLine
 10
-2.910994399999999
 20
-0.24508127
 30
0.0
 11
-2.871789799999999
 21
-0.28428587
 31
0.0
  0
LINE
  5
306
330
2A9
100
AcDbEntity
  8
1
  6
Continuous
 62
     3
100
AcDbLine
 10
-3.034531199999999
 20
-0.13259297
 30
0.0
 11
-3.0076645
 21
-0.15945967
 31
0.0
  0
LINE
  5
307
330
2A9
100
AcDbEntity
  8
1
  6
Continuous
 62
     3
100
AcDbLine
 10
-2.9161502
 20
-0.25097407
 30
0.0
 11
-2.882838299999999
 21
-0.28428587
 31
0.0
  0
LINE
  5
308
330
2A9
100
AcDbEntity
  8
1
  6
Continuous
 62
     3
100
AcDbLine
 10
-3.0415805
 20
-0.13659197
 30
0.0
 11
-3.014713799999999
 21
-0.16345887
 31
0.0
  0
LINE
  5
309
330
2A9
100
AcDbEntity
  8
1
  6
Continuous
 62
     3
100
AcDbLine
 10
-2.9213062
 20
-0.25686657
 30
0.0
 11
-2.8938866
 21
-0.28428587
 31
0.0
  0
LINE
  5
30A
330
2A9
100
AcDbEntity
  8
1
  6
Continuous
 62
     3
100
AcDbLine
 10
-3.0486301
 20
-0.14059127
 30
0.0
 11
-3.021763399999999
 21
-0.16745787
 31
0.0
  0
LINE
  5
30B
330
2A9
100
AcDbEntity
  8
1
  6
Continuous
 62
     3
100
AcDbLine
 10
-2.9264622
 20
-0.26275907
 30
0.0
 11
-2.9005068
 21
-0.28871427
 31
0.0
  0
LINE
  5
30C
330
2A9
100
AcDbEntity
  8
1
  6
Continuous
 62
     3
100
AcDbLine
 10
-3.0556796
 20
-0.14459027
 30
0.0
 11
-3.028812999999999
 21
-0.17145687
 31
0.0
  0
LINE
  5
30D
330
2A9
100
AcDbEntity
  8
1
  6
Continuous
 62
     3
100
AcDbLine
 10
-2.931618299999999
 20
-0.26865157
 30
0.0
 11
-2.905662799999999
 21
-0.29460697
 31
0.0
  0
LINE
  5
30E
330
2A9
100
AcDbEntity
  8
1
  6
Continuous
 62
     3
100
AcDbLine
 10
-3.0627292
 20
-0.14858927
 30
0.0
 11
-3.035862299999999
 21
-0.17545587
 31
0.0
  0
LINE
  5
30F
330
2A9
100
AcDbEntity
  8
1
  6
Continuous
 62
     3
100
AcDbLine
 10
-2.9367741
 20
-0.27454407
 30
0.0
 11
-2.910818899999999
 21
-0.30049957
 31
0.0
  0
LINE
  5
310
330
2A9
100
AcDbEntity
  8
1
  6
Continuous
 62
     3
100
AcDbLine
 10
-3.069778499999999
 20
-0.15258817
 30
0.0
 11
-3.042911799999999
 21
-0.17945487
 31
0.0
  0
LINE
  5
311
330
2A9
100
AcDbEntity
  8
1
  6
Continuous
 62
     3
100
AcDbLine
 10
-2.9419301
 20
-0.28043687
 30
0.0
 11
-2.9159749
 21
-0.30639207
 31
0.0
  0
LINE
  5
312
330
2A9
100
AcDbEntity
  8
1
  6
Continuous
 62
     3
100
AcDbLine
 10
-3.0768281
 20
-0.15658717
 30
0.0
 11
-3.049961399999999
 21
-0.18345417
 31
0.0
  0
LINE
  5
313
330
2A9
100
AcDbEntity
  8
1
  6
Continuous
 62
     3
100
AcDbLine
 10
-2.9470862
 20
-0.28632937
 30
0.0
 11
-2.921130699999999
 21
-0.31228457
 31
0.0
  0
LINE
  5
314
330
2A9
100
AcDbEntity
  8
1
  6
Continuous
 62
     3
100
AcDbLine
 10
-3.0838776
 20
-0.16058647
 30
0.0
 11
-3.057011
 21
-0.18745317
 31
0.0
  0
LINE
  5
315
330
2A9
100
AcDbEntity
  8
1
  6
Continuous
 62
     3
100
AcDbLine
 10
-2.952242
 20
-0.29222187
 30
0.0
 11
-2.926286799999999
 21
-0.31817707
 31
0.0
  0
LINE
  5
316
330
2A9
100
AcDbEntity
  8
1
  6
Continuous
 62
     3
100
AcDbLine
 10
-3.090927199999999
 20
-0.16458547
 30
0.0
 11
-3.064060299999999
 21
-0.19145207
 31
0.0
  0
LINE
  5
317
330
2A9
100
AcDbEntity
  8
1
  6
Continuous
 62
     3
100
AcDbLine
 10
-2.957397999999999
 20
-0.29811437
 30
0.0
 11
-2.9346016
 21
-0.32091097
 31
0.0
  0
LINE
  5
318
330
2A9
100
AcDbEntity
  8
1
  6
Continuous
 62
     3
100
AcDbLine
 10
-3.0979765
 20
-0.16858447
 30
0.0
 11
-3.071109799999999
 21
-0.19545107
 31
0.0
  0
LINE
  5
319
330
2A9
100
AcDbEntity
  8
1
  6
Continuous
 62
     3
100
AcDbLine
 10
-2.962553999999999
 20
-0.30400717
 30
0.0
 11
-2.9456502
 21
-0.32091097
 31
0.0
  0
LINE
  5
31A
330
2A9
100
AcDbEntity
  8
1
  6
Continuous
 62
     3
100
AcDbLine
 10
-3.1050261
 20
-0.17258347
 30
0.0
 11
-3.078159399999999
 21
-0.19945037
 31
0.0
  0
LINE
  5
31B
330
2A9
100
AcDbEntity
  8
1
  6
Continuous
 62
     3
100
AcDbLine
 10
-2.9677101
 20
-0.30989967
 30
0.0
 11
-2.9566987
 21
-0.32091097
 31
0.0
  0
LINE
  5
31C
330
2A9
100
AcDbEntity
  8
1
  6
Continuous
 62
     3
100
AcDbLine
 10
-3.1120756
 20
-0.17658267
 30
0.0
 11
-3.0852087
 21
-0.20344937
 31
0.0
  0
LINE
  5
31D
330
2A9
100
AcDbEntity
  8
1
  6
Continuous
 62
     3
100
AcDbLine
 10
-2.9728659
 20
-0.31579217
 30
0.0
 11
-2.967747299999999
 21
-0.32091097
 31
0.0
  0
LINE
  5
31E
330
2A9
100
AcDbEntity
  8
1
  6
Continuous
 62
     3
100
AcDbLine
 10
-3.119124999999999
 20
-0.18058167
 30
0.0
 11
-3.092258299999999
 21
-0.20744837
 31
0.0
  0
LINE
  5
31F
330
2A9
100
AcDbEntity
  8
1
  6
Continuous
 62
     3
100
AcDbLine
 10
-3.126174499999999
 20
-0.18458067
 30
0.0
 11
-3.099307799999999
 21
-0.21144737
 31
0.0
  0
LINE
  5
320
330
2A9
100
AcDbEntity
  8
1
  6
Continuous
 62
     3
100
AcDbLine
 10
-3.0275651
 20
-0.28319007
 30
0.0
 11
-2.9898442
 21
-0.32091097
 31
0.0
  0
LINE
  5
321
330
2A9
100
AcDbEntity
  8
1
  6
Continuous
 62
     3
100
AcDbLine
 10
-3.1332241
 20
-0.18857967
 30
0.0
 11
-3.0008927
 21
-0.32091097
 31
0.0
  0
LINE
  5
322
330
2A9
100
AcDbEntity
  8
1
  6
Continuous
 62
     3
100
AcDbLine
 10
-3.140273599999999
 20
-0.19257867
 30
0.0
 11
-3.011941299999999
 21
-0.32091097
 31
0.0
  0
LINE
  5
323
330
2A9
100
AcDbEntity
  8
1
  6
Continuous
 62
     3
100
AcDbLine
 10
-3.2114192
 20
-0.13248167
 30
0.0
 11
-3.2025107
 21
-0.14139017
 31
0.0
  0
LINE
  5
324
330
2A9
100
AcDbEntity
  8
1
  6
Continuous
 62
     3
100
AcDbLine
 10
-3.147323
 20
-0.19657787
 30
0.0
 11
-3.022989799999999
 21
-0.32091097
 31
0.0
  0
LINE
  5
325
330
2A9
100
AcDbEntity
  8
1
  6
Continuous
 62
     3
100
AcDbLine
 10
-3.2224677
 20
-0.13248167
 30
0.0
 11
-3.204166999999999
 21
-0.15078247
 31
0.0
  0
LINE
  5
326
330
2A9
100
AcDbEntity
  8
1
  6
Continuous
 62
     3
100
AcDbLine
 10
-3.1543725
 20
-0.20057687
 30
0.0
 11
-3.0340384
 21
-0.32091097
 31
0.0
  0
LINE
  5
327
330
2A9
100
AcDbEntity
  8
1
  6
Continuous
 62
     3
100
AcDbLine
 10
-3.233516299999999
 20
-0.13248167
 30
0.0
 11
-3.205823
 21
-0.16017497
 31
0.0
  0
LINE
  5
328
330
2A9
100
AcDbEntity
  8
1
  6
Continuous
 62
     3
100
AcDbLine
 10
-3.1614221
 20
-0.20457587
 30
0.0
 11
-3.045086899999999
 21
-0.32091097
 31
0.0
  0
LINE
  5
329
330
2A9
100
AcDbEntity
  8
1
  6
Continuous
 62
     3
100
AcDbLine
 10
-3.244564799999999
 20
-0.13248167
 30
0.0
 11
-3.2074791
 21
-0.16956717
 31
0.0
  0
LINE
  5
32A
330
2A9
100
AcDbEntity
  8
1
  6
Continuous
 62
     3
100
AcDbLine
 10
-3.1684716
 20
-0.20857487
 30
0.0
 11
-3.056135499999999
 21
-0.32091097
 31
0.0
  0
LINE
  5
32B
330
2A9
100
AcDbEntity
  8
1
  6
Continuous
 62
     3
100
AcDbLine
 10
-3.2534831
 20
-0.13461197
 30
0.0
 11
-3.2091354
 21
-0.17895967
 31
0.0
  0
LINE
  5
32C
330
2A9
100
AcDbEntity
  8
1
  6
Continuous
 62
     3
100
AcDbLine
 10
-3.175520999999999
 20
-0.21257407
 30
0.0
 11
-3.067184
 21
-0.32091097
 31
0.0
  0
LINE
  5
32D
330
2A9
100
AcDbEntity
  8
1
  6
Continuous
 62
     3
100
AcDbLine
 10
-3.2551392
 20
-0.14400417
 30
0.0
 11
-3.2107914
 21
-0.18835217
 31
0.0
  0
LINE
  5
32E
330
2A9
100
AcDbEntity
  8
1
  6
Continuous
 62
     3
100
AcDbLine
 10
-3.1825705
 20
-0.21657307
 30
0.0
 11
-3.1557039
 21
-0.24343977
 31
0.0
  0
LINE
  5
32F
330
2A9
100
AcDbEntity
  8
1
  6
Continuous
 62
     3
100
AcDbLine
 10
-3.256795499999999
 20
-0.15339667
 30
0.0
 11
-3.212447499999999
 21
-0.19774447
 31
0.0
  0
LINE
  5
330
330
2A9
100
AcDbEntity
  8
1
  6
Continuous
 62
     3
100
AcDbLine
 10
-3.189620099999999
 20
-0.22057207
 30
0.0
 11
-3.1627532
 21
-0.24743877
 31
0.0
  0
LINE
  5
331
330
2A9
100
AcDbEntity
  8
1
  6
Continuous
 62
     3
100
AcDbLine
 10
-3.2584515
 20
-0.16278917
 30
0.0
 11
-3.214103799999999
 21
-0.20713697
 31
0.0
  0
LINE
  5
332
330
2A9
100
AcDbEntity
  8
1
  6
Continuous
 62
     3
100
AcDbLine
 10
-3.196669399999999
 20
-0.22457107
 30
0.0
 11
-3.169802699999999
 21
-0.25143797
 31
0.0
  0
LINE
  5
333
330
2A9
100
AcDbEntity
  8
1
  6
Continuous
 62
     3
100
AcDbLine
 10
-3.260107599999999
 20
-0.17218147
 30
0.0
 11
-3.215759799999999
 21
-0.21652947
 31
0.0
  0
LINE
  5
334
330
2A9
100
AcDbEntity
  8
1
  6
Continuous
 62
     3
100
AcDbLine
 10
-3.203718999999999
 20
-0.22857007
 30
0.0
 11
-3.176852299999999
 21
-0.25543697
 31
0.0
  0
LINE
  5
335
330
2A9
100
AcDbEntity
  8
1
  6
Continuous
 62
     3
100
AcDbLine
 10
-3.2617639
 20
-0.18157397
 30
0.0
 11
-3.217415899999999
 21
-0.22592177
 31
0.0
  0
LINE
  5
336
330
2A9
100
AcDbEntity
  8
1
  6
Continuous
 62
     3
100
AcDbLine
 10
-3.210768499999999
 20
-0.23256927
 30
0.0
 11
-3.183901899999999
 21
-0.25943597
 31
0.0
  0
LINE
  5
337
330
2A9
100
AcDbEntity
  8
1
  6
Continuous
 62
     3
100
AcDbLine
 10
-3.2634199
 20
-0.19096647
 30
0.0
 11
-3.2190722
 21
-0.23531427
 31
0.0
  0
LINE
  5
338
330
2A9
100
AcDbEntity
  8
1
  6
Continuous
 62
     3
100
AcDbLine
 10
-3.2178181
 20
-0.23656827
 30
0.0
 11
-3.1909512
 21
-0.26343497
 31
0.0
  0
LINE
  5
339
330
2A9
100
AcDbEntity
  8
1
  6
Continuous
 62
     3
100
AcDbLine
 10
-3.265075999999999
 20
-0.20035867
 30
0.0
 11
-3.1980007
 21
-0.26743397
 31
0.0
  0
LINE
  5
33A
330
2A9
100
AcDbEntity
  8
1
  6
Continuous
 62
     3
100
AcDbLine
 10
-3.266732299999999
 20
-0.20975117
 30
0.0
 11
-3.205050299999999
 21
-0.27143317
 31
0.0
  0
LINE
  5
33B
330
2A9
100
AcDbEntity
  8
1
  6
Continuous
 62
     3
100
AcDbLine
 10
-3.268388299999999
 20
-0.21914347
 30
0.0
 11
-3.2120999
 21
-0.27543217
 31
0.0
  0
LINE
  5
33C
330
2A9
100
AcDbEntity
  8
1
  6
Continuous
 62
     3
100
AcDbLine
 10
-3.270044399999999
 20
-0.22853597
 30
0.0
 11
-3.2191492
 21
-0.27943117
 31
0.0
  0
LINE
  5
33D
330
2A9
100
AcDbEntity
  8
1
  6
Continuous
 62
     3
100
AcDbLine
 10
-3.2717007
 20
-0.23792847
 30
0.0
 11
-3.2261987
 21
-0.28343017
 31
0.0
  0
LINE
  5
33E
330
2A9
100
AcDbEntity
  8
1
  6
Continuous
 62
     3
100
AcDbLine
 10
-3.2733567
 20
-0.24732077
 30
0.0
 11
-3.229009
 21
-0.29166847
 31
0.0
  0
LINE
  5
33F
330
2A9
100
AcDbEntity
  8
1
  6
Continuous
 62
     3
100
AcDbLine
 10
-3.275012799999999
 20
-0.25671327
 30
0.0
 11
-3.230665
 21
-0.30106097
 31
0.0
  0
LINE
  5
340
330
2A9
100
AcDbEntity
  8
1
  6
Continuous
 62
     3
100
AcDbLine
 10
-3.2766691
 20
-0.26610547
 30
0.0
 11
-3.2323211
 21
-0.31045347
 31
0.0
  0
LINE
  5
341
330
2A9
100
AcDbEntity
  8
1
  6
Continuous
 62
     3
100
AcDbLine
 10
-3.2783251
 20
-0.27549797
 30
0.0
 11
-3.233977399999999
 21
-0.31984577
 31
0.0
  0
LINE
  5
342
330
2A9
100
AcDbEntity
  8
1
  6
Continuous
 62
     3
100
AcDbLine
 10
-3.2799812
 20
-0.28489047
 30
0.0
 11
-3.2439607
 21
-0.32091097
 31
0.0
  0
LINE
  5
343
330
2A9
100
AcDbEntity
  8
1
  6
Continuous
 62
     3
100
AcDbLine
 10
-3.281637499999999
 20
-0.29428277
 30
0.0
 11
-3.255009199999999
 21
-0.32091097
 31
0.0
  0
LINE
  5
344
330
2A9
100
AcDbEntity
  8
1
  6
Continuous
 62
     3
100
AcDbLine
 10
-3.2832936
 20
-0.30367527
 30
0.0
 11
-3.266057799999999
 21
-0.32091097
 31
0.0
  0
LINE
  5
345
330
2A9
100
AcDbEntity
  8
1
  6
Continuous
 62
     3
100
AcDbLine
 10
-3.2849496
 20
-0.31306777
 30
0.0
 11
-3.277106399999999
 21
-0.32091097
 31
0.0
  0
LINE
  5
346
330
2A9
100
AcDbEntity
  8
1
  6
Continuous
 62
     3
100
AcDbLine
 10
-3.4765843
 20
-0.13248167
 30
0.0
 11
-3.471168299999999
 21
-0.13789757
 31
0.0
  0
LINE
  5
347
330
2A9
100
AcDbEntity
  8
1
  6
Continuous
 62
     3
100
AcDbLine
 10
-3.3155299
 20
-0.29353607
 30
0.0
 11
-3.3099623
 21
-0.29910337
 31
0.0
  0
LINE
  5
348
330
2A9
100
AcDbEntity
  8
1
  6
Continuous
 62
     3
100
AcDbLine
 10
-3.4876328
 20
-0.13248167
 30
0.0
 11
-3.4728246
 21
-0.14728987
 31
0.0
  0
LINE
  5
349
330
2A9
100
AcDbEntity
  8
1
  6
Continuous
 62
     3
100
AcDbLine
 10
-3.326578399999999
 20
-0.29353607
 30
0.0
 11
-3.3116186
 21
-0.30849587
 31
0.0
  0
LINE
  5
34A
330
2A9
100
AcDbEntity
  8
1
  6
Continuous
 62
     3
100
AcDbLine
 10
-3.498681399999999
 20
-0.13248167
 30
0.0
 11
-3.474480699999999
 21
-0.15668237
 31
0.0
  0
LINE
  5
34B
330
2A9
100
AcDbEntity
  8
1
  6
Continuous
 62
     3
100
AcDbLine
 10
-3.337626999999999
 20
-0.29353607
 30
0.0
 11
-3.3132747
 21
-0.31788837
 31
0.0
  0
LINE
  5
34C
330
2A9
100
AcDbEntity
  8
1
  6
Continuous
 62
     3
100
AcDbLine
 10
-3.509729899999999
 20
-0.13248167
 30
0.0
 11
-3.476136799999999
 21
-0.16607487
 31
0.0
  0
LINE
  5
34D
330
2A9
100
AcDbEntity
  8
1
  6
Continuous
 62
     3
100
AcDbLine
 10
-3.348675599999999
 20
-0.29353607
 30
0.0
 11
-3.3213006
 21
-0.32091097
 31
0.0
  0
LINE
  5
34E
330
2A9
100
AcDbEntity
  8
1
  6
Continuous
 62
     3
100
AcDbLine
 10
-3.5207785
 20
-0.13248167
 30
0.0
 11
-3.477793
 21
-0.17546707
 31
0.0
  0
LINE
  5
34F
330
2A9
100
AcDbEntity
  8
1
  6
Continuous
 62
     3
100
AcDbLine
 10
-3.3597241
 20
-0.29353607
 30
0.0
 11
-3.3323491
 21
-0.32091097
 31
0.0
  0
LINE
  5
350
330
2A9
100
AcDbEntity
  8
1
  6
Continuous
 62
     3
100
AcDbLine
 10
-3.523796899999999
 20
-0.14051187
 30
0.0
 11
-3.4794491
 21
-0.18485957
 31
0.0
  0
LINE
  5
351
330
2A9
100
AcDbEntity
  8
1
  6
Continuous
 62
     3
100
AcDbLine
 10
-3.370772699999999
 20
-0.29353607
 30
0.0
 11
-3.343397699999999
 21
-0.32091097
 31
0.0
  0
LINE
  5
352
330
2A9
100
AcDbEntity
  8
1
  6
Continuous
 62
     3
100
AcDbLine
 10
-3.5254529
 20
-0.14990407
 30
0.0
 11
-3.4811052
 21
-0.19425187
 31
0.0
  0
LINE
  5
353
330
2A9
100
AcDbEntity
  8
1
  6
Continuous
 62
     3
100
AcDbLine
 10
-3.3818212
 20
-0.29353607
 30
0.0
 11
-3.354446199999999
 21
-0.32091097
 31
0.0
  0
LINE
  5
354
330
2A9
100
AcDbEntity
  8
1
  6
Continuous
 62
     3
100
AcDbLine
 10
-3.5271092
 20
-0.15929657
 30
0.0
 11
-3.482761499999999
 21
-0.20364437
 31
0.0
  0
LINE
  5
355
330
2A9
100
AcDbEntity
  8
1
  6
Continuous
 62
     3
100
AcDbLine
 10
-3.392869799999999
 20
-0.29353607
 30
0.0
 11
-3.365494799999999
 21
-0.32091097
 31
0.0
  0
LINE
  5
356
330
2A9
100
AcDbEntity
  8
1
  6
Continuous
 62
     3
100
AcDbLine
 10
-3.564972699999999
 20
-0.13248167
 30
0.0
 11
-3.5630663
 21
-0.13438807
 31
0.0
  0
LINE
  5
357
330
2A9
100
AcDbEntity
  8
1
  6
Continuous
 62
     3
100
AcDbLine
 10
-3.528765299999999
 20
-0.16868887
 30
0.0
 11
-3.4844175
 21
-0.21303687
 31
0.0
  0
LINE
  5
358
330
2A9
100
AcDbEntity
  8
1
  6
Continuous
 62
     3
100
AcDbLine
 10
-3.403918299999999
 20
-0.29353607
 30
0.0
 11
-3.3765434
 21
-0.32091097
 31
0.0
  0
LINE
  5
359
330
2A9
100
AcDbEntity
  8
1
  6
Continuous
 62
     3
100
AcDbLine
 10
-3.576021299999999
 20
-0.13248167
 30
0.0
 11
-3.5647224
 21
-0.14378057
 31
0.0
  0
LINE
  5
35A
330
2A9
100
AcDbEntity
  8
1
  6
Continuous
 62
     3
100
AcDbLine
 10
-3.530421299999999
 20
-0.17808137
 30
0.0
 11
-3.4860736
 21
-0.22242917
 31
0.0
  0
LINE
  5
35B
330
2A9
100
AcDbEntity
  8
1
  6
Continuous
 62
     3
100
AcDbLine
 10
-3.4149669
 20
-0.29353607
 30
0.0
 11
-3.3875919
 21
-0.32091097
 31
0.0
  0
LINE
  5
35C
330
2A9
100
AcDbEntity
  8
1
  6
Continuous
 62
     3
100
AcDbLine
 10
-3.587069799999999
 20
-0.13248167
 30
0.0
 11
-3.5663784
 21
-0.15317287
 31
0.0
  0
LINE
  5
35D
330
2A9
100
AcDbEntity
  8
1
  6
Continuous
 62
     3
100
AcDbLine
 10
-3.532077599999999
 20
-0.18747387
 30
0.0
 11
-3.487729899999999
 21
-0.23182167
 31
0.0
  0
LINE
  5
35E
330
2A9
100
AcDbEntity
  8
1
  6
Continuous
 62
     3
100
AcDbLine
 10
-3.4260154
 20
-0.29353607
 30
0.0
 11
-3.398640499999999
 21
-0.32091097
 31
0.0
  0
LINE
  5
35F
330
2A9
100
AcDbEntity
  8
1
  6
Continuous
 62
     3
100
AcDbLine
 10
-3.5981184
 20
-0.13248167
 30
0.0
 11
-3.5707434
 21
-0.15985667
 31
0.0
  0
LINE
  5
360
330
2A9
100
AcDbEntity
  8
1
  6
Continuous
 62
     3
100
AcDbLine
 10
-3.533733699999999
 20
-0.19686617
 30
0.0
 11
-3.489385899999999
 21
-0.24121387
 31
0.0
  0
LINE
  5
361
330
2A9
100
AcDbEntity
  8
1
  6
Continuous
 62
     3
100
AcDbLine
 10
-3.437063999999999
 20
-0.29353607
 30
0.0
 11
-3.409688999999999
 21
-0.32091097
 31
0.0
  0
LINE
  5
362
330
2A9
100
AcDbEntity
  8
1
  6
Continuous
 62
     3
100
AcDbLine
 10
-3.609166899999999
 20
-0.13248167
 30
0.0
 11
-3.5817917
 21
-0.15985667
 31
0.0
  0
LINE
  5
363
330
2A9
100
AcDbEntity
  8
1
  6
Continuous
 62
     3
100
AcDbLine
 10
-3.5353897
 20
-0.20625867
 30
0.0
 11
-3.491041999999999
 21
-0.25060637
 31
0.0
  0
LINE
  5
364
330
2A9
100
AcDbEntity
  8
1
  6
Continuous
 62
     3
100
AcDbLine
 10
-3.4481126
 20
-0.29353607
 30
0.0
 11
-3.4207376
 21
-0.32091097
 31
0.0
  0
LINE
  5
365
330
2A9
100
AcDbEntity
  8
1
  6
Continuous
 62
     3
100
AcDbLine
 10
-3.6202155
 20
-0.13248167
 30
0.0
 11
-3.592840299999999
 21
-0.15985667
 31
0.0
  0
LINE
  5
366
330
2A9
100
AcDbEntity
  8
1
  6
Continuous
 62
     3
100
AcDbLine
 10
-3.537046
 20
-0.21565087
 30
0.0
 11
-3.492698299999999
 21
-0.25999887
 31
0.0
  0
LINE
  5
367
330
2A9
100
AcDbEntity
  8
1
  6
Continuous
 62
     3
100
AcDbLine
 10
-3.4591611
 20
-0.29353607
 30
0.0
 11
-3.4317861
 21
-0.32091097
 31
0.0
  0
LINE
  5
368
330
2A9
100
AcDbEntity
  8
1
  6
Continuous
 62
     3
100
AcDbLine
 10
-3.631263999999999
 20
-0.13248167
 30
0.0
 11
-3.6038888
 21
-0.15985667
 31
0.0
  0
LINE
  5
369
330
2A9
100
AcDbEntity
  8
1
  6
Continuous
 62
     3
100
AcDbLine
 10
-3.5387021
 20
-0.22504337
 30
0.0
 11
-3.494354299999999
 21
-0.26939117
 31
0.0
  0
LINE
  5
36A
330
2A9
100
AcDbEntity
  8
1
  6
Continuous
 62
     3
100
AcDbLine
 10
-3.4702097
 20
-0.29353607
 30
0.0
 11
-3.442834399999999
 21
-0.32091097
 31
0.0
  0
LINE
  5
36B
330
2A9
100
AcDbEntity
  8
1
  6
Continuous
 62
     3
100
AcDbLine
 10
-3.6423126
 20
-0.13248167
 30
0.0
 11
-3.614937399999999
 21
-0.15985667
 31
0.0
  0
LINE
  5
36C
330
2A9
100
AcDbEntity
  8
1
  6
Continuous
 62
     3
100
AcDbLine
 10
-3.540358099999999
 20
-0.23443587
 30
0.0
 11
-3.496010399999999
 21
-0.27878367
 31
0.0
  0
LINE
  5
36D
330
2A9
100
AcDbEntity
  8
1
  6
Continuous
 62
     3
100
AcDbLine
 10
-3.481257999999999
 20
-0.29353607
 30
0.0
 11
-3.453883
 21
-0.32091097
 31
0.0
  0
LINE
  5
36E
330
2A9
100
AcDbEntity
  8
1
  6
Continuous
 62
     3
100
AcDbLine
 10
-3.653360899999999
 20
-0.13248167
 30
0.0
 11
-3.625985899999999
 21
-0.15985667
 31
0.0
  0
LINE
  5
36F
330
2A9
100
AcDbEntity
  8
1
  6
Continuous
 62
     3
100
AcDbLine
 10
-3.5420144
 20
-0.24382817
 30
0.0
 11
-3.497666699999999
 21
-0.28817617
 31
0.0
  0
LINE
  5
370
330
2A9
100
AcDbEntity
  8
1
  6
Continuous
 62
     3
100
AcDbLine
 10
-3.4923065
 20
-0.29353607
 30
0.0
 11
-3.464931599999999
 21
-0.32091097
 31
0.0
  0
LINE
  5
371
330
2A9
100
AcDbEntity
  8
1
  6
Continuous
 62
     3
100
AcDbLine
 10
-3.6644095
 20
-0.13248167
 30
0.0
 11
-3.637034499999999
 21
-0.15985667
 31
0.0
  0
LINE
  5
372
330
2A9
100
AcDbEntity
  8
1
  6
Continuous
 62
     3
100
AcDbLine
 10
-3.5436705
 20
-0.25322067
 30
0.0
 11
-3.4759801
 21
-0.32091097
 31
0.0
  0
LINE
  5
373
330
2A9
100
AcDbEntity
  8
1
  6
Continuous
 62
     3
100
AcDbLine
 10
-3.675458
 20
-0.13248167
 30
0.0
 11
-3.648083
 21
-0.15985667
 31
0.0
  0
LINE
  5
374
330
2A9
100
AcDbEntity
  8
1
  6
Continuous
 62
     3
100
AcDbLine
 10
-3.594993399999999
 20
-0.21294627
 30
0.0
 11
-3.5904177
 21
-0.21752197
 31
0.0
  0
LINE
  5
375
330
2A9
100
AcDbEntity
  8
1
  6
Continuous
 62
     3
100
AcDbLine
 10
-3.545326499999999
 20
-0.26261317
 30
0.0
 11
-3.4870287
 21
-0.32091097
 31
0.0
  0
LINE
  5
376
330
2A9
100
AcDbEntity
  8
1
  6
Continuous
 62
     3
100
AcDbLine
 10
-3.686506599999999
 20
-0.13248167
 30
0.0
 11
-3.659131599999999
 21
-0.15985667
 31
0.0
  0
LINE
  5
377
330
2A9
100
AcDbEntity
  8
1
  6
Continuous
 62
     3
100
AcDbLine
 10
-3.606041999999999
 20
-0.21294627
 30
0.0
 11
-3.592073999999999
 21
-0.22691427
 31
0.0
  0
LINE
  5
378
330
2A9
100
AcDbEntity
  8
1
  6
Continuous
 62
     3
100
AcDbLine
 10
-3.5469828
 20
-0.27200537
 30
0.0
 11
-3.4980772
 21
-0.32091097
 31
0.0
  0
LINE
  5
379
330
2A9
100
AcDbEntity
  8
1
  6
Continuous
 62
     3
100
AcDbLine
 10
-3.697555099999999
 20
-0.13248167
 30
0.0
 11
-3.6701802
 21
-0.15985667
 31
0.0
  0
LINE
  5
37A
330
2A9
100
AcDbEntity
  8
1
  6
Continuous
 62
     3
100
AcDbLine
 10
-3.617090499999999
 20
-0.21294627
 30
0.0
 11
-3.59373
 21
-0.23630677
 31
0.0
  0
LINE
  5
37B
330
2A9
100
AcDbEntity
  8
1
  6
Continuous
 62
     3
100
AcDbLine
 10
-3.548638899999999
 20
-0.28139787
 30
0.0
 11
-3.5091258
 21
-0.32091097
 31
0.0
  0
LINE
  5
37C
330
2A9
100
AcDbEntity
  8
1
  6
Continuous
 62
     3
100
AcDbLine
 10
-3.7086037
 20
-0.13248167
 30
0.0
 11
-3.6812287
 21
-0.15985667
 31
0.0
  0
LINE
  5
37D
330
2A9
100
AcDbEntity
  8
1
  6
Continuous
 62
     3
100
AcDbLine
 10
-3.6281391
 20
-0.21294627
 30
0.0
 11
-3.600639199999999
 21
-0.24044617
 31
0.0
  0
LINE
  5
37E
330
2A9
100
AcDbEntity
  8
1
  6
Continuous
 62
     3
100
AcDbLine
 10
-3.550294899999999
 20
-0.29079017
 30
0.0
 11
-3.520174299999999
 21
-0.32091097
 31
0.0
  0
LINE
  5
37F
330
2A9
100
AcDbEntity
  8
1
  6
Continuous
 62
     3
100
AcDbLine
 10
-3.7196522
 20
-0.13248167
 30
0.0
 11
-3.6922773
 21
-0.15985667
 31
0.0
  0
LINE
  5
380
330
2A9
100
AcDbEntity
  8
1
  6
Continuous
 62
     3
100
AcDbLine
 10
-3.6391876
 20
-0.21294627
 30
0.0
 11
-3.611687499999999
 21
-0.24044617
 31
0.0
  0
LINE
  5
381
330
2A9
100
AcDbEntity
  8
1
  6
Continuous
 62
     3
100
AcDbLine
 10
-3.5519512
 20
-0.30018267
 30
0.0
 11
-3.531222899999999
 21
-0.32091097
 31
0.0
  0
LINE
  5
382
330
2A9
100
AcDbEntity
  8
1
  6
Continuous
 62
     3
100
AcDbLine
 10
-3.7307008
 20
-0.13248167
 30
0.0
 11
-3.7033258
 21
-0.15985667
 31
0.0
  0
LINE
  5
383
330
2A9
100
AcDbEntity
  8
1
  6
Continuous
 62
     3
100
AcDbLine
 10
-3.6502362
 20
-0.21294627
 30
0.0
 11
-3.622736
 21
-0.24044617
 31
0.0
  0
LINE
  5
384
330
2A9
100
AcDbEntity
  8
1
  6
Continuous
 62
     3
100
AcDbLine
 10
-3.553607299999999
 20
-0.30957517
 30
0.0
 11
-3.5422714
 21
-0.32091097
 31
0.0
  0
LINE
  5
385
330
2A9
100
AcDbEntity
  8
1
  6
Continuous
 62
     3
100
AcDbLine
 10
-3.741749399999999
 20
-0.13248167
 30
0.0
 11
-3.7143744
 21
-0.15985667
 31
0.0
  0
LINE
  5
386
330
2A9
100
AcDbEntity
  8
1
  6
Continuous
 62
     3
100
AcDbLine
 10
-3.661284799999999
 20
-0.21294627
 30
0.0
 11
-3.633784599999999
 21
-0.24044617
 31
0.0
  0
LINE
  5
387
330
2A9
100
AcDbEntity
  8
1
  6
Continuous
 62
     3
100
AcDbLine
 10
-3.580694999999999
 20
-0.29353607
 30
0.0
 11
-3.578773999999999
 21
-0.29545677
 31
0.0
  0
LINE
  5
388
330
2A9
100
AcDbEntity
  8
1
  6
Continuous
 62
     3
100
AcDbLine
 10
-3.5552633
 20
-0.31896747
 30
0.0
 11
-3.553319999999999
 21
-0.32091097
 31
0.0
  0
LINE
  5
389
330
2A9
100
AcDbEntity
  8
1
  6
Continuous
 62
     3
100
AcDbLine
 10
-3.7527979
 20
-0.13248167
 30
0.0
 11
-3.725422899999999
 21
-0.15985667
 31
0.0
  0
LINE
  5
38A
330
2A9
100
AcDbEntity
  8
1
  6
Continuous
 62
     3
100
AcDbLine
 10
-3.6723333
 20
-0.21294627
 30
0.0
 11
-3.6448332
 21
-0.24044617
 31
0.0
  0
LINE
  5
38B
330
2A9
100
AcDbEntity
  8
1
  6
Continuous
 62
     3
100
AcDbLine
 10
-3.591743499999999
 20
-0.29353607
 30
0.0
 11
-3.5804303
 21
-0.30484927
 31
0.0
  0
LINE
  5
38C
330
2A9
100
AcDbEntity
  8
1
  6
Continuous
 62
     3
100
AcDbLine
 10
-3.763846499999999
 20
-0.13248167
 30
0.0
 11
-3.736471499999999
 21
-0.15985667
 31
0.0
  0
LINE
  5
38D
330
2A9
100
AcDbEntity
  8
1
  6
Continuous
 62
     3
100
AcDbLine
 10
-3.683381899999999
 20
-0.21294627
 30
0.0
 11
-3.6558817
 21
-0.24044617
 31
0.0
  0
LINE
  5
38E
330
2A9
100
AcDbEntity
  8
1
  6
Continuous
 62
     3
100
AcDbLine
 10
-3.6027921
 20
-0.29353607
 30
0.0
 11
-3.5820864
 21
-0.31424147
 31
0.0
  0
LINE
  5
38F
330
2A9
100
AcDbEntity
  8
1
  6
Continuous
 62
     3
100
AcDbLine
 10
-3.774894999999999
 20
-0.13248167
 30
0.0
 11
-3.747519999999999
 21
-0.15985667
 31
0.0
  0
LINE
  5
390
330
2A9
100
AcDbEntity
  8
1
  6
Continuous
 62
     3
100
AcDbLine
 10
-3.694430399999999
 20
-0.21294627
 30
0.0
 11
-3.6669303
 21
-0.24044617
 31
0.0
  0
LINE
  5
391
330
2A9
100
AcDbEntity
  8
1
  6
Continuous
 62
     3
100
AcDbLine
 10
-3.6138406
 20
-0.29353607
 30
0.0
 11
-3.586465699999999
 21
-0.32091097
 31
0.0
  0
LINE
  5
392
330
2A9
100
AcDbEntity
  8
1
  6
Continuous
 62
     3
100
AcDbLine
 10
-3.785943599999999
 20
-0.13248167
 30
0.0
 11
-3.7585686
 21
-0.15985667
 31
0.0
  0
LINE
  5
393
330
2A9
100
AcDbEntity
  8
1
  6
Continuous
 62
     3
100
AcDbLine
 10
-3.705478999999999
 20
-0.21294627
 30
0.0
 11
-3.677978799999999
 21
-0.24044617
 31
0.0
  0
LINE
  5
394
330
2A9
100
AcDbEntity
  8
1
  6
Continuous
 62
     3
100
AcDbLine
 10
-3.6248892
 20
-0.29353607
 30
0.0
 11
-3.597514199999999
 21
-0.32091097
 31
0.0
  0
LINE
  5
395
330
2A9
100
AcDbEntity
  8
1
  6
Continuous
 62
     3
100
AcDbLine
 10
-3.7969919
 20
-0.13248167
 30
0.0
 11
-3.7696171
 21
-0.15985667
 31
0.0
  0
LINE
  5
396
330
2A9
100
AcDbEntity
  8
1
  6
Continuous
 62
     3
100
AcDbLine
 10
-3.7165273
 20
-0.21294627
 30
0.0
 11
-3.689027399999999
 21
-0.24044617
 31
0.0
  0
LINE
  5
397
330
2A9
100
AcDbEntity
  8
1
  6
Continuous
 62
     3
100
AcDbLine
 10
-3.635937799999999
 20
-0.29353607
 30
0.0
 11
-3.608562799999999
 21
-0.32091097
 31
0.0
  0
LINE
  5
398
330
2A9
100
AcDbEntity
  8
1
  6
Continuous
 62
     3
100
AcDbLine
 10
-3.808040699999999
 20
-0.13248167
 30
0.0
 11
-3.778164199999999
 21
-0.16235787
 31
0.0
  0
LINE
  5
399
330
2A9
100
AcDbEntity
  8
1
  6
Continuous
 62
     3
100
AcDbLine
 10
-3.7275758
 20
-0.21294627
 30
0.0
 11
-3.700075899999999
 21
-0.24044617
 31
0.0
  0
LINE
  5
39A
330
2A9
100
AcDbEntity
  8
1
  6
Continuous
 62
     3
100
AcDbLine
 10
-3.646986299999999
 20
-0.29353607
 30
0.0
 11
-3.619611299999999
 21
-0.32091097
 31
0.0
  0
LINE
  5
39B
330
2A9
100
AcDbEntity
  8
1
  6
Continuous
 62
     3
100
AcDbLine
 10
-3.819088999999999
 20
-0.13248167
 30
0.0
 11
-3.7798205
 21
-0.17175037
 31
0.0
  0
LINE
  5
39C
330
2A9
100
AcDbEntity
  8
1
  6
Continuous
 62
     3
100
AcDbLine
 10
-3.738624399999999
 20
-0.21294627
 30
0.0
 11
-3.7111245
 21
-0.24044617
 31
0.0
  0
LINE
  5
39D
330
2A9
100
AcDbEntity
  8
1
  6
Continuous
 62
     3
100
AcDbLine
 10
-3.6580349
 20
-0.29353607
 30
0.0
 11
-3.6306599
 21
-0.32091097
 31
0.0
  0
LINE
  5
39E
330
2A9
100
AcDbEntity
  8
1
  6
Continuous
 62
     3
100
AcDbLine
 10
-3.8258019
 20
-0.13681757
 30
0.0
 11
-3.7814766
 21
-0.18114287
 31
0.0
  0
LINE
  5
39F
330
2A9
100
AcDbEntity
  8
1
  6
Continuous
 62
     3
100
AcDbLine
 10
-3.749673
 20
-0.21294627
 30
0.0
 11
-3.722173
 21
-0.24044617
 31
0.0
  0
LINE
  5
3A0
330
2A9
100
AcDbEntity
  8
1
  6
Continuous
 62
     3
100
AcDbLine
 10
-3.6690834
 20
-0.29353607
 30
0.0
 11
-3.6417084
 21
-0.32091097
 31
0.0
  0
LINE
  5
3A1
330
2A9
100
AcDbEntity
  8
1
  6
Continuous
 62
     3
100
AcDbLine
 10
-3.827458
 20
-0.14621007
 30
0.0
 11
-3.7831326
 21
-0.19053517
 31
0.0
  0
LINE
  5
3A2
330
2A9
100
AcDbEntity
  8
1
  6
Continuous
 62
     3
100
AcDbLine
 10
-3.760721499999999
 20
-0.21294627
 30
0.0
 11
-3.7332216
 21
-0.24044617
 31
0.0
  0
LINE
  5
3A3
330
2A9
100
AcDbEntity
  8
1
  6
Continuous
 62
     3
100
AcDbLine
 10
-3.680131999999999
 20
-0.29353607
 30
0.0
 11
-3.652756999999999
 21
-0.32091097
 31
0.0
  0
LINE
  5
3A4
330
2A9
100
AcDbEntity
  8
1
  6
Continuous
 62
     3
100
AcDbLine
 10
-3.829114
 20
-0.15560227
 30
0.0
 11
-3.784788899999999
 21
-0.19992767
 31
0.0
  0
LINE
  5
3A5
330
2A9
100
AcDbEntity
  8
1
  6
Continuous
 62
     3
100
AcDbLine
 10
-3.771770099999999
 20
-0.21294627
 30
0.0
 11
-3.7442702
 21
-0.24044617
 31
0.0
  0
LINE
  5
3A6
330
2A9
100
AcDbEntity
  8
1
  6
Continuous
 62
     3
100
AcDbLine
 10
-3.6911805
 20
-0.29353607
 30
0.0
 11
-3.6638056
 21
-0.32091097
 31
0.0
  0
LINE
  5
3A7
330
2A9
100
AcDbEntity
  8
1
  6
Continuous
 62
     3
100
AcDbLine
 10
-3.8307701
 20
-0.16499477
 30
0.0
 11
-3.786444999999999
 21
-0.20931987
 31
0.0
  0
LINE
  5
3A8
330
2A9
100
AcDbEntity
  8
1
  6
Continuous
 62
     3
100
AcDbLine
 10
-3.7828186
 20
-0.21294627
 30
0.0
 11
-3.7553187
 21
-0.24044617
 31
0.0
  0
LINE
  5
3A9
330
2A9
100
AcDbEntity
  8
1
  6
Continuous
 62
     3
100
AcDbLine
 10
-3.702229099999999
 20
-0.29353607
 30
0.0
 11
-3.674854099999999
 21
-0.32091097
 31
0.0
  0
LINE
  5
3AA
330
2A9
100
AcDbEntity
  8
1
  6
Continuous
 62
     3
100
AcDbLine
 10
-3.832426099999999
 20
-0.17438707
 30
0.0
 11
-3.766367299999999
 21
-0.24044617
 31
0.0
  0
LINE
  5
3AB
330
2A9
100
AcDbEntity
  8
1
  6
Continuous
 62
     3
100
AcDbLine
 10
-3.713277599999999
 20
-0.29353607
 30
0.0
 11
-3.685902399999999
 21
-0.32091097
 31
0.0
  0
LINE
  5
3AC
330
2A9
100
AcDbEntity
  8
1
  6
Continuous
 62
     3
100
AcDbLine
 10
-3.8340827
 20
-0.18377957
 30
0.0
 11
-3.777415799999999
 21
-0.24044617
 31
0.0
  0
LINE
  5
3AD
330
2A9
100
AcDbEntity
  8
1
  6
Continuous
 62
     3
100
AcDbLine
 10
-3.724326
 20
-0.29353607
 30
0.0
 11
-3.696951
 21
-0.32091097
 31
0.0
  0
LINE
  5
3AE
330
2A9
100
AcDbEntity
  8
1
  6
Continuous
 62
     3
100
AcDbLine
 10
-3.8357387
 20
-0.19317207
 30
0.0
 11
-3.788369499999999
 21
-0.24054107
 31
0.0
  0
LINE
  5
3AF
330
2A9
100
AcDbEntity
  8
1
  6
Continuous
 62
     3
100
AcDbLine
 10
-3.7353745
 20
-0.29353607
 30
0.0
 11
-3.7079995
 21
-0.32091097
 31
0.0
  0
LINE
  5
3B0
330
2A9
100
AcDbEntity
  8
1
  6
Continuous
 62
     3
100
AcDbLine
 10
-3.837394799999999
 20
-0.20256437
 30
0.0
 11
-3.790025499999999
 21
-0.24993357
 31
0.0
  0
LINE
  5
3B1
330
2A9
100
AcDbEntity
  8
1
  6
Continuous
 62
     3
100
AcDbLine
 10
-3.746423099999999
 20
-0.29353607
 30
0.0
 11
-3.7190481
 21
-0.32091097
 31
0.0
  0
LINE
  5
3B2
330
2A9
100
AcDbEntity
  8
1
  6
Continuous
 62
     3
100
AcDbLine
 10
-3.8390508
 20
-0.21195687
 30
0.0
 11
-3.7916818
 21
-0.25932587
 31
0.0
  0
LINE
  5
3B3
330
2A9
100
AcDbEntity
  8
1
  6
Continuous
 62
     3
100
AcDbLine
 10
-3.7574716
 20
-0.29353607
 30
0.0
 11
-3.730096599999999
 21
-0.32091097
 31
0.0
  0
LINE
  5
3B4
330
2A9
100
AcDbEntity
  8
1
  6
Continuous
 62
     3
100
AcDbLine
 10
-3.840706899999999
 20
-0.22134937
 30
0.0
 11
-3.7933379
 21
-0.26871837
 31
0.0
  0
LINE
  5
3B5
330
2A9
100
AcDbEntity
  8
1
  6
Continuous
 62
     3
100
AcDbLine
 10
-3.7685202
 20
-0.29353607
 30
0.0
 11
-3.7411452
 21
-0.32091097
 31
0.0
  0
LINE
  5
3B6
330
2A9
100
AcDbEntity
  8
1
  6
Continuous
 62
     3
100
AcDbLine
 10
-3.842362899999999
 20
-0.23074157
 30
0.0
 11
-3.794993899999999
 21
-0.27811057
 31
0.0
  0
LINE
  5
3B7
330
2A9
100
AcDbEntity
  8
1
  6
Continuous
 62
     3
100
AcDbLine
 10
-3.7795687
 20
-0.29353607
 30
0.0
 11
-3.752193799999999
 21
-0.32091097
 31
0.0
  0
LINE
  5
3B8
330
2A9
100
AcDbEntity
  8
1
  6
Continuous
 62
     3
100
AcDbLine
 10
-3.844019499999999
 20
-0.24013407
 30
0.0
 11
-3.79665
 21
-0.28750307
 31
0.0
  0
LINE
  5
3B9
330
2A9
100
AcDbEntity
  8
1
  6
Continuous
 62
     3
100
AcDbLine
 10
-3.790617299999999
 20
-0.29353607
 30
0.0
 11
-3.763242299999999
 21
-0.32091097
 31
0.0
  0
LINE
  5
3BA
330
2A9
100
AcDbEntity
  8
1
  6
Continuous
 62
     3
100
AcDbLine
 10
-3.845675499999999
 20
-0.24952637
 30
0.0
 11
-3.7742909
 21
-0.32091097
 31
0.0
  0
LINE
  5
3BB
330
2A9
100
AcDbEntity
  8
1
  6
Continuous
 62
     3
100
AcDbLine
 10
-3.8473316
 20
-0.25891887
 30
0.0
 11
-3.7853394
 21
-0.32091097
 31
0.0
  0
LINE
  5
3BC
330
2A9
100
AcDbEntity
  8
1
  6
Continuous
 62
     3
100
AcDbLine
 10
-3.8489876
 20
-0.26831137
 30
0.0
 11
-3.796387699999999
 21
-0.32091097
 31
0.0
  0
LINE
  5
3BD
330
2A9
100
AcDbEntity
  8
1
  6
Continuous
 62
     3
100
AcDbLine
 10
-3.8506437
 20
-0.27770357
 30
0.0
 11
-3.807436499999999
 21
-0.32091097
 31
0.0
  0
LINE
  5
3BE
330
2A9
100
AcDbEntity
  8
1
  6
Continuous
 62
     3
100
AcDbLine
 10
-3.852299799999999
 20
-0.28709607
 30
0.0
 11
-3.818484899999999
 21
-0.32091097
 31
0.0
  0
LINE
  5
3BF
330
2A9
100
AcDbEntity
  8
1
  6
Continuous
 62
     3
100
AcDbLine
 10
-3.853956299999999
 20
-0.29648837
 30
0.0
 11
-3.8295336
 21
-0.32091097
 31
0.0
  0
LINE
  5
3C0
330
2A9
100
AcDbEntity
  8
1
  6
Continuous
 62
     3
100
AcDbLine
 10
-3.855612299999999
 20
-0.30588087
 30
0.0
 11
-3.840581999999999
 21
-0.32091097
 31
0.0
  0
LINE
  5
3C1
330
2A9
100
AcDbEntity
  8
1
  6
Continuous
 62
     3
100
AcDbLine
 10
-3.8572684
 20
-0.31527337
 30
0.0
 11
-3.851630799999999
 21
-0.32091097
 31
0.0
  0
LINE
  5
3C2
330
2A9
100
AcDbEntity
  8
1
  6
Continuous
 62
     3
100
AcDbLine
 10
-3.498611799999999
 20
-0.29353607
 30
0.0
 11
-3.308980799999999
 21
-0.29353607
 31
0.0
  0
LINE
  5
3C3
330
2A9
100
AcDbEntity
  8
1
  6
Continuous
 62
     3
100
AcDbLine
 10
-3.825037099999999
 20
-0.13248167
 30
0.0
 11
-3.5627301
 21
-0.13248167
 31
0.0
  0
LINE
  5
3C4
330
2A9
100
AcDbEntity
  8
1
  6
Continuous
 62
     3
100
AcDbLine
 10
-3.8582626
 20
-0.32091097
 30
0.0
 11
-3.5832625
 21
-0.32091097
 31
0.0
  0
LINE
  5
3C5
330
2A9
100
AcDbEntity
  8
1
  6
Continuous
 62
     3
100
AcDbLine
 10
-3.8582626
 20
-0.32091097
 30
0.0
 11
-3.825037099999999
 21
-0.13248167
 31
0.0
  0
LINE
  5
3C6
330
2A9
100
AcDbEntity
  8
1
  6
Continuous
 62
     3
100
AcDbLine
 10
-3.777723099999999
 20
-0.15985667
 30
0.0
 11
-3.567556899999999
 21
-0.15985667
 31
0.0
  0
LINE
  5
3C7
330
2A9
100
AcDbEntity
  8
1
  6
Continuous
 62
     3
100
AcDbLine
 10
-3.5556062
 20
-0.32091097
 30
0.0
 11
-3.522380899999999
 21
-0.13248167
 31
0.0
  0
LINE
  5
3C8
330
2A9
100
AcDbEntity
  8
1
  6
Continuous
 62
     3
100
AcDbLine
 10
-3.522380899999999
 20
-0.13248167
 30
0.0
 11
-3.4702135
 21
-0.13248167
 31
0.0
  0
LINE
  5
3C9
330
2A9
100
AcDbEntity
  8
1
  6
Continuous
 62
     3
100
AcDbLine
 10
-3.5556062
 20
-0.32091097
 30
0.0
 11
-3.3138078
 21
-0.32091097
 31
0.0
  0
LINE
  5
3CA
330
2A9
100
AcDbEntity
  8
1
  6
Continuous
 62
     3
100
AcDbLine
 10
-3.498611799999999
 20
-0.29353607
 30
0.0
 11
-3.4702135
 21
-0.13248167
 31
0.0
  0
LINE
  5
3CB
330
2A9
100
AcDbEntity
  8
1
  6
Continuous
 62
     3
100
AcDbLine
 10
-3.787084399999999
 20
-0.21294627
 30
0.0
 11
-3.777723099999999
 21
-0.15985667
 31
0.0
  0
LINE
  5
3CC
330
2A9
100
AcDbEntity
  8
1
  6
Continuous
 62
     3
100
AcDbLine
 10
-3.567556899999999
 20
-0.15985667
 30
0.0
 11
-3.5627301
 21
-0.13248167
 31
0.0
  0
LINE
  5
3CD
330
2A9
100
AcDbEntity
  8
1
  6
Continuous
 62
     3
100
AcDbLine
 10
-3.5944601
 20
-0.24044617
 30
0.0
 11
-3.589610899999999
 21
-0.21294627
 31
0.0
  0
LINE
  5
3CE
330
2A9
100
AcDbEntity
  8
1
  6
Continuous
 62
     3
100
AcDbLine
 10
-2.360681399999999
 20
-0.13248167
 30
0.0
 11
-2.4871977
 21
-0.22693612
 31
0.0
  0
LINE
  5
3CF
330
2A9
100
AcDbEntity
  8
1
  6
Continuous
 62
     3
100
AcDbLine
 10
-2.360681399999999
 20
-0.13248167
 30
0.0
 11
-2.421902199999999
 21
-0.13248167
 31
0.0
  0
LINE
  5
3D0
330
2A9
100
AcDbEntity
  8
1
  6
Continuous
 62
     3
100
AcDbLine
 10
-2.421902199999999
 20
-0.13248167
 30
0.0
 11
-2.513366799999999
 21
-0.20076716
 31
0.0
  0
LINE
  5
3D1
330
2A9
100
AcDbEntity
  8
1
  6
Continuous
 62
     3
100
AcDbLine
 10
-3.5832625
 20
-0.32091097
 30
0.0
 11
-3.5784355
 21
-0.29353607
 31
0.0
  0
LINE
  5
3D2
330
2A9
100
AcDbEntity
  8
1
  6
Continuous
 62
     3
100
AcDbLine
 10
-3.797713799999999
 20
-0.29353607
 30
0.0
 11
-3.788352799999999
 21
-0.24044617
 31
0.0
  0
LINE
  5
3D3
330
2A9
100
AcDbEntity
  8
1
  6
Continuous
 62
     3
100
AcDbLine
 10
-3.589610899999999
 20
-0.21294627
 30
0.0
 11
-3.787084399999999
 21
-0.21294627
 31
0.0
  0
LINE
  5
3D4
330
2A9
100
AcDbEntity
  8
1
  6
Continuous
 62
     3
100
AcDbLine
 10
-3.788352799999999
 20
-0.24044617
 30
0.0
 11
-3.5944601
 21
-0.24044617
 31
0.0
  0
LINE
  5
3D5
330
2A9
100
AcDbEntity
  8
1
  6
Continuous
 62
     3
100
AcDbLine
 10
-2.9601074
 20
-0.13248167
 30
0.0
 11
-3.103231499999999
 21
-0.21367317
 31
0.0
  0
LINE
  5
3D6
330
2A9
100
AcDbEntity
  8
1
  6
Continuous
 62
     3
100
AcDbLine
 10
-3.797713799999999
 20
-0.29353607
 30
0.0
 11
-3.5784355
 21
-0.29353607
 31
0.0
  0
LINE
  5
3D7
330
2A9
100
AcDbEntity
  8
1
  6
Continuous
 62
     3
100
AcDbLine
 10
-3.3138078
 20
-0.32091097
 30
0.0
 11
-3.308980799999999
 21
-0.29353607
 31
0.0
  0
LINE
  5
3D8
330
2A9
100
AcDbEntity
  8
1
  6
Continuous
 62
     3
100
AcDbLine
 10
-3.0343347
 20
-0.13248167
 30
0.0
 11
-2.9601074
 21
-0.13248167
 31
0.0
  0
LINE
  5
3D9
330
2A9
100
AcDbEntity
  8
1
  6
Continuous
 62
     3
100
AcDbLine
 10
-3.067728299999999
 20
-0.32091097
 30
0.0
 11
-2.9865075
 21
-0.32091097
 31
0.0
  0
LINE
  5
3DA
330
2A9
100
AcDbEntity
  8
1
  6
Continuous
 62
     3
100
AcDbLine
 10
-3.2277072
 20
-0.28428587
 30
0.0
 11
-3.234164999999999
 21
-0.32091097
 31
0.0
  0
LINE
  5
3DB
330
2A9
100
AcDbEntity
  8
1
  6
Continuous
 62
     3
100
AcDbLine
 10
-3.20094
 20
-0.13248167
 30
0.0
 11
-3.219457199999999
 21
-0.23749817
 31
0.0
  0
LINE
  5
3DC
330
2A9
100
AcDbEntity
  8
1
  6
Continuous
 62
     3
100
AcDbLine
 10
-2.812469799999999
 20
-0.13248167
 30
0.0
 11
-2.720969999999999
 21
-0.13248167
 31
0.0
  0
LINE
  5
3DD
330
2A9
100
AcDbEntity
  8
1
  6
Continuous
 62
     3
100
AcDbLine
 10
-2.690363499999999
 20
-0.32091097
 30
0.0
 11
-2.629345
 21
-0.32091097
 31
0.0
  0
LINE
  5
3DE
330
2A9
100
AcDbEntity
  8
1
  6
Continuous
 62
     3
100
AcDbLine
 10
-3.153446699999999
 20
-0.24215917
 30
0.0
 11
-3.2277072
 21
-0.28428587
 31
0.0
  0
LINE
  5
3DF
330
2A9
100
AcDbEntity
  8
1
  6
Continuous
 62
     3
100
AcDbLine
 10
-3.0343347
 20
-0.13248167
 30
0.0
 11
-3.219457199999999
 21
-0.23749817
 31
0.0
  0
LINE
  5
3E0
330
2A9
100
AcDbEntity
  8
1
  6
Continuous
 62
     3
100
AcDbLine
 10
-3.20094
 20
-0.13248167
 30
0.0
 11
-3.253107599999999
 21
-0.13248167
 31
0.0
  0
LINE
  5
3E1
330
2A9
100
AcDbEntity
  8
1
  6
Continuous
 62
     3
100
AcDbLine
 10
-3.2863327
 20
-0.32091097
 30
0.0
 11
-3.253107599999999
 21
-0.13248167
 31
0.0
  0
LINE
  5
3E2
330
2A9
100
AcDbEntity
  8
1
  6
Continuous
 62
     3
100
AcDbLine
 10
-2.9865075
 20
-0.32091097
 30
0.0
 11
-3.103231499999999
 21
-0.21367317
 31
0.0
  0
LINE
  5
3E3
330
2A9
100
AcDbEntity
  8
1
  6
Continuous
 62
     3
100
AcDbLine
 10
-3.067728299999999
 20
-0.32091097
 30
0.0
 11
-3.153446699999999
 21
-0.24215917
 31
0.0
  0
LINE
  5
3E4
330
2A9
100
AcDbEntity
  8
1
  6
Continuous
 62
     3
100
AcDbLine
 10
-3.234164999999999
 20
-0.32091097
 30
0.0
 11
-3.2863327
 21
-0.32091097
 31
0.0
  0
LINE
  5
3E5
330
2A9
100
AcDbEntity
  8
1
  6
Continuous
 62
     3
100
AcDbLine
 10
-2.977344799999999
 20
-0.32091097
 30
0.0
 11
-2.928678799999999
 21
-0.32091097
 31
0.0
  0
LINE
  5
3E6
330
2A9
100
AcDbEntity
  8
1
  6
Continuous
 62
     3
100
AcDbLine
 10
-2.8735541
 20
-0.25791107
 30
0.0
 11
-2.7754927
 21
-0.14584027
 31
0.0
  0
LINE
  5
3E7
330
2A9
100
AcDbEntity
  8
1
  6
Continuous
 62
     3
100
AcDbLine
 10
-2.7209976
 20
-0.25791107
 30
0.0
 11
-2.7754927
 21
-0.14584027
 31
0.0
  0
LINE
  5
3E8
330
2A9
100
AcDbEntity
  8
1
  6
Continuous
 62
     3
100
AcDbLine
 10
-2.977344799999999
 20
-0.32091097
 30
0.0
 11
-2.812469799999999
 21
-0.13248167
 31
0.0
  0
LINE
  5
3E9
330
2A9
100
AcDbEntity
  8
1
  6
Continuous
 62
     3
100
AcDbLine
 10
-2.896631999999999
 20
-0.28428587
 30
0.0
 11
-2.7081726
 21
-0.28428587
 31
0.0
  0
LINE
  5
3EA
330
2A9
100
AcDbEntity
  8
1
  6
Continuous
 62
     3
100
AcDbLine
 10
-2.629345
 20
-0.32091097
 30
0.0
 11
-2.720969999999999
 21
-0.13248167
 31
0.0
  0
LINE
  5
3EB
330
2A9
100
AcDbEntity
  8
1
  6
Continuous
 62
     3
100
AcDbLine
 10
-2.8735541
 20
-0.25791107
 30
0.0
 11
-2.7209976
 21
-0.25791107
 31
0.0
  0
LINE
  5
3EC
330
2A9
100
AcDbEntity
  8
1
  6
Continuous
 62
     3
100
AcDbLine
 10
-2.928678799999999
 20
-0.32091097
 30
0.0
 11
-2.896631999999999
 21
-0.28428587
 31
0.0
  0
LINE
  5
3ED
330
2A9
100
AcDbEntity
  8
1
  6
Continuous
 62
     3
100
AcDbLine
 10
-2.690363499999999
 20
-0.32091097
 30
0.0
 11
-2.7081726
 21
-0.28428587
 31
0.0
  0
LINE
  5
3EE
330
2A9
100
AcDbEntity
  8
1
  6
Continuous
 62
     3
100
AcDbLine
 10
-2.421902199999999
 20
-0.13248167
 30
0.0
 11
-2.360681399999999
 21
-0.13248167
 31
0.0
  0
LINE
  5
3EF
330
2A9
100
AcDbEntity
  8
1
  6
Continuous
 62
     3
100
AcDbLine
 10
-2.5835949
 20
-0.32091097
 30
0.0
 11
-2.527873299999999
 21
-0.32091097
 31
0.0
  0
LINE
  5
3F0
330
2A9
100
AcDbEntity
  8
1
  6
Continuous
 62
     3
100
AcDbLine
 10
-2.5835949
 20
-0.32091097
 30
0.0
 11
-2.572459799999999
 21
-0.25776017
 31
0.0
  0
LINE
  5
3F1
330
2A9
100
AcDbEntity
  8
1
  6
Continuous
 62
     3
100
AcDbLine
 10
-2.527873299999999
 20
-0.32091097
 30
0.0
 11
-2.514957499999999
 21
-0.24766097
 31
0.0
  0
LINE
  5
3F2
330
2A9
100
AcDbEntity
  8
1
  6
Continuous
 62
     3
100
AcDbLine
 10
-2.6149352
 20
-0.13248167
 30
0.0
 11
-2.510227399999999
 21
-0.2436863
 31
0.0
  0
LINE
  5
3F3
330
2A9
100
AcDbEntity
  8
1
  6
Continuous
 62
     3
100
AcDbLine
 10
-2.572459799999999
 20
-0.25776017
 30
0.0
 11
-2.690418999999999
 21
-0.13248167
 31
0.0
  0
LINE
  5
3F4
330
2A9
100
AcDbEntity
  8
1
  6
Continuous
 62
     3
100
AcDbLine
 10
-2.690418999999999
 20
-0.13248167
 30
0.0
 11
-2.6149352
 21
-0.13248167
 31
0.0
  0
INSERT
  5
3F6
330
2A9
100
AcDbEntity
  8
1
100
AcDbBlockReference
  2
*D48
 10
0.0
 20
0.0
 30
0.0
  0
INSERT
  5
3F7
330
2A9
100
AcDbEntity
  8
1
100
AcDbBlockReference
  2
*U46
 10
-13.723101
 20
-1.3176113
 30
0.0
  0
POINT
  5
3F8
330
2A9
100
AcDbEntity
  8
1
  6
Continuous
 62
     1
100
AcDbPoint
 10
0.0
 20
0.0
 30
0.0
  0
ENDBLK
  5
3F9
330
2A9
100
AcDbEntity
  8
0
100
AcDbBlockEnd
  0
BLOCK
  5
500
330
3F5
100
AcDbEntity
  8
0
100
AcDbBlockBegin
  2
*D48
 70
     1
 10
0.0
 20
0.0
 30
0.0
  3
*D48
  1

  0
CIRCLE
  5
501
330
3F5
100
AcDbEntity
  8
1
  6
Continuous
 62
     3
100
AcDbCircle
 10
-13.891626
 20
-1.191217399999999
 30
0.0
 40
0.08
  0
TEXT
  5
502
330
3F5
100
AcDbEntity
  8
1
  6
Continuous
 62
     3
100
AcDbText
 10
-13.926626
 20
-1.226217399999999
 30
0.0
 40
0.07
  1
C
100
AcDbText
  0
ENDBLK
  5
503
330
3F5
100
AcDbEntity
  8
0
100
AcDbBlockEnd
  0
BLOCK
  5
ED5
330
ED2
100
AcDbEntity
  8
0
 62
     1
100
AcDbBlockBegin
  2
CENTRE MARK
 70
     0
 10
0.0
 20
0.0
 30
0.0
  3
CENTRE MARK
  1

  0
LINE
  5
ED6
330
ED2
100
AcDbEntity
  8
1
  6
Continuous
 62
     7
100
AcDbLine
 10
-2.34483435528239
 20
0.0
 30
0.0
 11
-0.2854412689970829
 21
0.0000000000000071
 31
0.0
  0
LINE
  5
ED7
330
ED2
100
AcDbEntity
  8
1
  6
Continuous
 62
     7
100
AcDbLine
 10
0.2854412689970829
 20
0.0
 30
0.0
 11
2.275401884148944
 21
0.0
 31
0.0
  0
LINE
  5
ED8
330
ED2
100
AcDbEntity
  8
1
  6
Continuous
 62
     7
100
AcDbLine
 10
0.0
 20
-2.510547683119078
 30
0.0
 11
0.0000000000000036
 21
-0.2854412689970829
 31
0.0
  0
LINE
  5
ED9
330
ED2
100
AcDbEntity
  8
1
  6
Continuous
 62
     7
100
AcDbLine
 10
-0.0000000000000036
 20
0.2854412689970829
 30
0.0
 11
0.0
 21
2.339320445421357
 31
0.0
  0
LINE
  5
EDA
330
ED2
100
AcDbEntity
  8
1
  6
Continuous
 62
     7
100
AcDbLine
 10
-0.0722643156274643
 20
0.0
 30
0.0
 11
0.0722643156274643
 21
0.0
 31
0.0
  0
LINE
  5
EDB
330
ED2
100
AcDbEntity
  8
1
  6
Continuous
 62
     7
100
AcDbLine
 10
0.0
 20
-0.0722643156274643
 30
0.0
 11
0.0
 21
0.0722643156274643
 31
0.0
  0
LINE
  5
EDC
330
ED2
100
AcDbEntity
  8
1
  6
Continuous
 62
     7
100
AcDbLine
 10
-0.0900000000000034
 20
-0.0000000000000071
 30
0.0
 11
0.0899999999999963
 21
0.0
 31
0.0
  0
LINE
  5
EDD
330
ED2
100
AcDbEntity
  8
1
  6
Continuous
 62
     7
100
AcDbLine
 10
-0.0000000000000036
 20
-0.0900000000000105
 30
0.0
 11
0.0
 21
0.0900000000000034
 31
0.0
  0
ENDBLK
  5
EDE
330
ED2
100
AcDbEntity
  8
0
 62
     1
100
AcDbBlockEnd
  0
ENDSEC
  0
SECTION
  2
ENTITIES
  0
TEXT
  5
81E
330
22
100
AcDbEntity
  8
168
  6
Continuous
 62
     3
100
AcDbText
 10
16.406059
 20
3.353064899999999
 30
0.0
 40
0.125
  1
 
 41
0.95454536
 51
359.9999958057
100
AcDbText
  0
TEXT
  5
821
330
22
100
AcDbEntity
  8
126
  6
Continuous
 62
     3
100
AcDbText
 10
15.196422
 20
0.9765904
 30
0.0
 40
0.125
  1
 
 41
1.047619199999999
 51
359.9999958057
100
AcDbText
  0
ARC
  5
C49
330
22
100
AcDbEntity
  8
1
  6
Continuous
100
AcDbCircle
 10
71.71688945095294
 20
20.96030460456177
 30
0.0
 40
1.499999999906249
100
AcDbArc
 50
0.0
 51
90.0
  0
LINE
  5
C4A
330
22
100
AcDbEntity
  8
1
  6
Continuous
100
AcDbLine
 10
43.59188945271076
 20
22.46030460446802
 30
0.0
 11
71.71688945095294
 21
22.46030460446802
 31
0.0
  0
ARC
  5
C4B
330
22
100
AcDbEntity
  8
1
  6
Continuous
100
AcDbCircle
 10
43.59188945271076
 20
20.96030460456177
 30
0.0
 40
1.499999999906249
100
AcDbArc
 50
90.0
 51
122.04893
  0
LINE
  5
C4C
330
22
100
AcDbEntity
  8
1
  6
Continuous
100
AcDbLine
 10
73.2168894508592
 20
20.96030460456177
 30
0.0
 11
73.2168894508592
 21
3.335304605663335
 31
0.0
  0
ARC
  5
C4D
330
22
100
AcDbEntity
  8
1
  6
Continuous
100
AcDbCircle
 10
71.71688945095294
 20
3.335304605663335
 30
0.0
 40
1.499999999906249
100
AcDbArc
 50
270.0
 51
0.0
  0
LINE
  5
C4E
330
22
100
AcDbEntity
  8
1
  6
Continuous
100
AcDbLine
 10
43.59188945271076
 20
1.835304605757086
 30
0.0
 11
71.71688945095294
 21
1.835304605757086
 31
0.0
  0
ARC
  5
C4F
330
22
100
AcDbEntity
  8
1
  6
Continuous
100
AcDbCircle
 10
43.59188945271076
 20
3.335304605663335
 30
0.0
 40
1.499999999906249
100
AcDbArc
 50
180.0
 51
270.0
  0
LINE
  5
C50
330
22
100
AcDbEntity
  8
1
  6
Continuous
100
AcDbLine
 10
42.09188945280451
 20
20.96030460456177
 30
0.0
 11
42.09188945280451
 21
3.335304605663335
 31
0.0
  0
ARC
  5
C51
330
22
100
AcDbEntity
  8
1
  6
Continuous
100
AcDbCircle
 10
43.59188945271076
 20
20.96030460456177
 30
0.0
 40
1.499999999906249
100
AcDbArc
 50
122.04893
 51
180.0
  0
ARC
  5
CDE
330
22
100
AcDbEntity
  8
1
  6
Continuous
100
AcDbCircle
 10
45.88644891923402
 20
16.08149020486671
 30
0.0
 40
2.874999999843749
100
AcDbArc
 50
97.070681
 51
171.59488
  0
ARC
  5
CDF
330
22
100
AcDbEntity
  8
1
  6
Continuous
100
AcDbCircle
 10
49.99470011897725
 20
-17.03969485972989
 30
0.0
 40
36.24999999775781
100
AcDbArc
 50
89.93989600000075
 51
97.070681
  0
LINE
  5
CE0
330
22
100
AcDbEntity
  8
1
  6
Continuous
100
AcDbLine
 10
49.95680454237334
 20
19.21028526155566
 30
0.0
 11
65.28259569462853
 21
19.21028526155565
 31
0.0
  0
ARC
  5
CE1
330
22
100
AcDbEntity
  8
1
  6
Continuous
100
AcDbCircle
 10
78.90297745050382
 20
11.20302033850494
 30
0.0
 40
36.24999999775781
100
AcDbArc
 50
171.59488
 51
189.70908
  0
ARC
  5
CE5
330
22
100
AcDbEntity
  8
1
  6
Continuous
100
AcDbCircle
 10
46.00601531922655
 20
5.574475805523388
 30
0.0
 40
2.874999999843749
100
AcDbArc
 50
189.70908
 51
263.13611
  0
ARC
  5
CE6
330
22
100
AcDbEntity
  8
1
  6
Continuous
100
AcDbCircle
 10
49.99470011897725
 20
38.71027473678573
 30
0.0
 40
36.24999999775781
100
AcDbArc
 50
263.13611
 51
270.06032333933
  0
ARC
  5
CE7
330
22
100
AcDbEntity
  8
1
  6
Continuous
100
AcDbCircle
 10
65.24470011802413
 20
38.71027473678573
 30
0.0
 40
36.24999999775781
100
AcDbArc
 50
269.939676660684
 51
276.98433
  0
ARC
  5
CE8
330
22
100
AcDbEntity
  8
1
  6
Continuous
100
AcDbCircle
 10
69.30302758443715
 20
5.58293340552286
 30
0.0
 40
2.874999999843749
100
AcDbArc
 50
276.98433
 51
350.30565
  0
ARC
  5
CE9
330
22
100
AcDbEntity
  8
1
  6
Continuous
100
AcDbCircle
 10
36.4046195864933
 20
11.20302033850494
 30
0.0
 40
36.24999999775781
100
AcDbArc
 50
350.30565
 51
8.390029999999972
  0
ARC
  5
CEA
330
22
100
AcDbEntity
  8
1
  6
Continuous
100
AcDbCircle
 10
65.24470011802413
 20
-17.03969485972989
 30
0.0
 40
36.24999999775781
100
AcDbArc
 50
82.809111
 51
90.06010399999444
  0
ARC
  5
CEB
330
22
100
AcDbEntity
  8
1
  6
Continuous
100
AcDbCircle
 10
69.42243131776301
 20
16.07279793820057
 30
0.0
 40
2.874999999843749
100
AcDbArc
 50
8.3900337
 51
82.809111
  0
LINE
  5
CED
330
22
100
AcDbEntity
  8
1
  6
Continuous
100
AcDbLine
 10
49.95687793342838
 20
2.460294830116112
 30
0.0
 11
65.28266908568358
 21
2.460294830116104
 31
0.0
  0
LINE
  5
D0E
330
22
100
AcDbEntity
  8
1
  6
Continuous
100
AcDbLine
 10
51.07124489213481
 20
22.46030460446803
 30
0.0
 11
52.09379527899807
 21
20.62218832051949
 31
0.0
  0
LINE
  5
D0F
330
22
100
AcDbEntity
  8
1
  6
Continuous
100
AcDbLine
 10
51.07124489213481
 20
22.46030460446803
 30
0.0
 11
51.26961809675854
 21
21.90397617410518
 31
0.0
  0
LINE
  5
D10
330
22
100
AcDbEntity
  8
1
  6
Continuous
100
AcDbLine
 10
51.07124489213481
 20
22.46030460446803
 30
0.0
 11
51.43932612609675
 21
21.99838524720279
 31
0.0
  0
LINE
  5
D11
330
22
100
AcDbEntity
  8
1
  6
Continuous
100
AcDbLine
 10
51.26961809675854
 20
21.90397617410518
 30
0.0
 11
51.43932612609675
 21
21.99838524720279
 31
0.0
  0
LINE
  5
D12
330
22
100
AcDbEntity
  8
1
  6
Continuous
100
AcDbLine
 10
52.36857058948526
 20
20.62218832051949
 30
0.0
 11
52.09379527899807
 21
20.62218832051948
 31
0.0
  0
TEXT
  5
D13
330
22
100
AcDbEntity
  8
1
  6
Continuous
100
AcDbText
 10
55.00175437584236
 20
11.14584565527319
 30
0.0
 40
0.3691307187120105
  1
2007 template
100
AcDbText
  0
LINE
  5
D15
330
22
100
AcDbEntity
  8
1
  6
Continuous
100
AcDbLine
 10
49.95680454237334
 20
19.21028526155566
 30
0.0
 11
50.98119047710918
 21
17.40382612271744
 31
0.0
  0
LINE
  5
D16
330
22
100
AcDbEntity
  8
1
  6
Continuous
100
AcDbLine
 10
49.95680454237334
 20
19.21028526155566
 30
0.0
 11
50.15517774699706
 21
18.65395683119281
 31
0.0
  0
LINE
  5
D17
330
22
100
AcDbEntity
  8
1
  6
Continuous
100
AcDbLine
 10
49.95680454237334
 20
19.21028526155566
 30
0.0
 11
50.32488577633528
 21
18.74836590429042
 31
0.0
  0
LINE
  5
D18
330
22
100
AcDbEntity
  8
1
  6
Continuous
100
AcDbLine
 10
50.15517774699706
 20
18.65395683119281
 30
0.0
 11
50.32488577633528
 21
18.74836590429042
 31
0.0
  0
LINE
  5
D19
330
22
100
AcDbEntity
  8
1
  6
Continuous
100
AcDbLine
 10
51.25596578759637
 20
17.40382612271744
 30
0.0
 11
50.98119047710918
 21
17.40382612271744
 31
0.0
  0
TEXT
  5
D1A
330
22
100
AcDbEntity
  8
1
  6
Continuous
100
AcDbText
 10
52.45201070344456
 20
20.95888903862678
 30
0.0
 40
0.2172213230682879
  1
sink perimeter shown for reference ONLY,
100
AcDbText
  0
TEXT
  5
D1B
330
22
100
AcDbEntity
  8
1
  6
Continuous
100
AcDbText
 10
52.45201070344456
 20
20.69702204631075
 30
0.0
 40
0.2172213230682879
  1
do NOT cut here
100
AcDbText
  0
TEXT
  5
D1C
330
22
100
AcDbEntity
  8
1
  6
Continuous
100
AcDbText
 10
52.43517600281778
 20
20.33855233769628
 30
0.0
 40
0.2172213230682879
  1
perimetre exterieur de l'evier
100
AcDbText
  0
TEXT
  5
D1D
330
22
100
AcDbEntity
  8
1
  6
Continuous
100
AcDbText
 10
52.43517600281778
 20
20.07668534538024
 30
0.0
 40
0.2172213230682879
  1
NE PAS couper ici
100
AcDbText
  0
LINE
  5
D1E
330
22
100
AcDbEntity
  8
1
  6
Continuous
100
AcDbLine
 10
52.65832376226392
 20
20.52436813089213
 30
0.0
 11
52.79053612447588
 21
20.59038433759392
 31
0.0
  0
LINE
  5
D1F
330
22
100
AcDbEntity
  8
1
  6
Continuous
100
AcDbLine
 10
55.18924538493479
 20
20.52436813089213
 30
0.0
 11
55.32145774714675
 21
20.59038433759392
 31
0.0
  0
LINE
  5
D20
330
22
100
AcDbEntity
  8
1
  6
Continuous
100
AcDbLine
 10
57.59739830990341
 20
20.52436813089213
 30
0.0
 11
57.72961067211539
 21
20.59038433759392
 31
0.0
  0
TEXT
  5
D21
330
22
100
AcDbEntity
  8
1
  6
Continuous
100
AcDbText
 10
51.33932017655483
 20
17.47452038440746
 30
0.0
 40
0.2172213230682879
  1
cut along this inside line/
100
AcDbText
  0
TEXT
  5
D22
330
22
100
AcDbEntity
  8
1
  6
Continuous
100
AcDbText
 10
56.85152021945817
 20
17.46487702535429
 30
0.0
 40
0.2172213230682879
  1
couper
100
AcDbText
  0
LINE
  5
D23
330
22
100
AcDbEntity
  8
1
  6
Continuous
100
AcDbLine
 10
53.65392800822672
 20
20.52436813089213
 30
0.0
 11
53.52171564601476
 21
20.59038433759392
 31
0.0
  0
TEXT
  5
D24
330
22
100
AcDbEntity
  8
1
  6
Continuous
100
AcDbText
 10
51.31138830566116
 20
17.10100765246684
 30
0.0
 40
0.2172213230682879
  1
le long cette ligne interieure
100
AcDbText
  0
LINE
  5
D25
330
22
100
AcDbEntity
  8
1
  6
Continuous
100
AcDbLine
 10
55.97136476318984
 20
17.27330578174471
 30
0.0
 11
56.1035771254018
 21
17.33932198844651
 31
0.0
  0
LINE
  5
138B
330
22
100
AcDbEntity
  8
1
  6
CENTERLINE
100
AcDbLine
 10
57.65438945183185
 20
1.835304605757086
 30
0.0
 11
57.65438945183185
 21
3.835304605757086
 31
0.0
  0
MTEXT
  5
138D
330
22
100
AcDbEntity
  8
1
  6
Continuous
100
AcDbMText
 10
57.42173931492288
 20
4.796434615012884
 30
0.0
 40
0.5
 41
0.5678900910081098
 71
     1
 72
     5
  1
C
 73
     1
 44
1.0
1001
ACAD
1000
ACAD_MTEXT_COLUMN_INFO_BEGIN
1070
    75
1070
     2
1070
    79
1070
     0
1070
    76
1070
     1
1070
    78
1070
     0
1070
    48
1040
0.5678900910081098
1070
    49
1040
5.0
1070
    50
1070
     1
1040
0.0
1000
ACAD_MTEXT_COLUMN_INFO_END
1000
MTEXTBEGIN
1070
    73
1070
     1
1070
    44
1040
1.0
1070
    74
1070
     0
1000
MTEXTEND
  0
MTEXT
  5
1395
330
22
100
AcDbEntity
  8
1
  6
Continuous
100
AcDbMText
 10
57.59444649134946
 20
4.588728080055176
 30
0.0
 40
0.5
 41
0.5678900910081098
 71
     1
 72
     5
  1
L
 73
     1
 44
1.0
1001
ACAD
1000
ACAD_MTEXT_COLUMN_INFO_BEGIN
1070
    75
1070
     2
1070
    79
1070
     0
1070
    76
1070
     1
1070
    78
1070
     0
1070
    48
1040
0.5678900910081098
1070
    49
1040
5.0
1070
    50
1070
     1
1040
0.0
1000
ACAD_MTEXT_COLUMN_INFO_END
1000
MTEXTBEGIN
1070
    73
1070
     1
1070
    44
1040
1.0
1070
    74
1070
     0
1000
MTEXTEND
  0
TEXT
  5
14A6
330
22
100
AcDbEntity
  8
1
  6
Continuous
100
AcDbText
 10
72.99960421122744
 20
3.647600327481001
 30
0.0
 40
0.25
  1
74180628
 50
90.0
100
AcDbText
  0
ENDSEC
  0
SECTION
  2
OBJECTS
  0
DICTIONARY
  5
C
330
0
100
AcDbDictionary
281
     1
  3
ACAD_COLOR
350
1B
  3
ACAD_GROUP
350
D
  3
ACAD_LAYOUT
350
19
  3
ACAD_MATERIAL
350
1A
  3
ACAD_MLEADERSTYLE
350
D91
  3
ACAD_MLINESTYLE
350
16
  3
ACAD_PLOTSETTINGS
350
18
  3
ACAD_PLOTSTYLENAME
350
E
  3
ACAD_SCALELIST
350
D6F
  3
ACAD_TABLESTYLE
350
1C
  3
ACAD_VISUALSTYLE
350
D5E
  3
ACDB_RECOMPOSE_DATA
350
150E
  3
AcDbVariableDictionary
350
B93
  3
DWGPROPS
350
150F
  0
DICTIONARY
  5
12AB
330
8
100
AcDbDictionary
280
     1
281
     1
  0
DICTIONARY
  5
F18
330
2
100
AcDbDictionary
280
     1
281
     1
  3
ACAD_LAYERSTATES
360
F19
  0
DICTIONARY
  5
113A
330
10
100
AcDbDictionary
280
     1
281
     1
  3
ADSK_XREC_LAYER_RECONCILED
360
113B
  0
DICTIONARY
  5
113C
330
26
100
AcDbDictionary
280
     1
281
     1
  3
ADSK_XREC_LAYER_RECONCILED
360
113D
  0
DICTIONARY
  5
113E
330
2E
100
AcDbDictionary
280
     1
281
     1
  3
ADSK_XREC_LAYER_RECONCILED
360
113F
  0
DICTIONARY
  5
1140
330
2F
100
AcDbDictionary
280
     1
281
     1
  3
ADSK_XREC_LAYER_RECONCILED
360
1141
  0
DICTIONARY
  5
1142
330
30
100
AcDbDictionary
280
     1
281
     1
  3
ADSK_XREC_LAYER_RECONCILED
360
1143
  0
DICTIONARY
  5
1144
330
31
100
AcDbDictionary
280
     1
281
     1
  3
ADSK_XREC_LAYER_RECONCILED
360
1145
  0
DICTIONARY
  5
1146
330
32
100
AcDbDictionary
280
     1
281
     1
  3
ADSK_XREC_LAYER_RECONCILED
360
1147
  0
DICTIONARY
  5
1148
330
33
100
AcDbDictionary
280
     1
281
     1
  3
ADSK_XREC_LAYER_RECONCILED
360
1149
  0
DICTIONARY
  5
114A
330
34
100
AcDbDictionary
280
     1
281
     1
  3
ADSK_XREC_LAYER_RECONCILED
360
114B
  0
DICTIONARY
  5
114C
330
35
100
AcDbDictionary
280
     1
281
     1
  3
ADSK_XREC_LAYER_RECONCILED
360
114D
  0
DICTIONARY
  5
114E
330
36
100
AcDbDictionary
280
     1
281
     1
  3
ADSK_XREC_LAYER_RECONCILED
360
114F
  0
DICTIONARY
  5
1150
330
37
100
AcDbDictionary
280
     1
281
     1
  3
ADSK_XREC_LAYER_RECONCILED
360
1151
  0
DICTIONARY
  5
1152
330
38
100
AcDbDictionary
280
     1
281
     1
  3
ADSK_XREC_LAYER_RECONCILED
360
1153
  0
DICTIONARY
  5
1154
330
39
100
AcDbDictionary
280
     1
281
     1
  3
ADSK_XREC_LAYER_RECONCILED
360
1155
  0
DICTIONARY
  5
1156
330
3A
100
AcDbDictionary
280
     1
281
     1
  3
ADSK_XREC_LAYER_RECONCILED
360
1157
  0
DICTIONARY
  5
1158
330
3B
100
AcDbDictionary
280
     1
281
     1
  3
ADSK_XREC_LAYER_RECONCILED
360
1159
  0
DICTIONARY
  5
115A
330
3C
100
AcDbDictionary
280
     1
281
     1
  3
ADSK_XREC_LAYER_RECONCILED
360
115B
  0
DICTIONARY
  5
115C
330
3D
100
AcDbDictionary
280
     1
281
     1
  3
ADSK_XREC_LAYER_RECONCILED
360
115D
  0
DICTIONARY
  5
115E
330
3E
100
AcDbDictionary
280
     1
281
     1
  3
ADSK_XREC_LAYER_RECONCILED
360
115F
  0
DICTIONARY
  5
1160
330
3F
100
AcDbDictionary
280
     1
281
     1
  3
ADSK_XREC_LAYER_RECONCILED
360
1161
  0
DICTIONARY
  5
1162
330
40
100
AcDbDictionary
280
     1
281
     1
  3
ADSK_XREC_LAYER_RECONCILED
360
1163
  0
DICTIONARY
  5
1164
330
41
100
AcDbDictionary
280
     1
281
     1
  3
ADSK_XREC_LAYER_RECONCILED
360
1165
  0
DICTIONARY
  5
1166
330
42
100
AcDbDictionary
280
     1
281
     1
  3
ADSK_XREC_LAYER_RECONCILED
360
1167
  0
DICTIONARY
  5
1168
330
43
100
AcDbDictionary
280
     1
281
     1
  3
ADSK_XREC_LAYER_RECONCILED
360
1169
  0
DICTIONARY
  5
116A
330
44
100
AcDbDictionary
280
     1
281
     1
  3
ADSK_XREC_LAYER_RECONCILED
360
116B
  0
DICTIONARY
  5
116C
330
45
100
AcDbDictionary
280
     1
281
     1
  3
ADSK_XREC_LAYER_RECONCILED
360
116D
  0
DICTIONARY
  5
116E
330
46
100
AcDbDictionary
280
     1
281
     1
  3
ADSK_XREC_LAYER_RECONCILED
360
116F
  0
DICTIONARY
  5
1170
330
47
100
AcDbDictionary
280
     1
281
     1
  3
ADSK_XREC_LAYER_RECONCILED
360
1171
  0
DICTIONARY
  5
1172
330
48
100
AcDbDictionary
280
     1
281
     1
  3
ADSK_XREC_LAYER_RECONCILED
360
1173
  0
DICTIONARY
  5
1174
330
49
100
AcDbDictionary
280
     1
281
     1
  3
ADSK_XREC_LAYER_RECONCILED
360
1175
  0
DICTIONARY
  5
1176
330
4A
100
AcDbDictionary
280
     1
281
     1
  3
ADSK_XREC_LAYER_RECONCILED
360
1177
  0
DICTIONARY
  5
1178
330
4B
100
AcDbDictionary
280
     1
281
     1
  3
ADSK_XREC_LAYER_RECONCILED
360
1179
  0
DICTIONARY
  5
117A
330
4C
100
AcDbDictionary
280
     1
281
     1
  3
ADSK_XREC_LAYER_RECONCILED
360
117B
  0
DICTIONARY
  5
117C
330
4D
100
AcDbDictionary
280
     1
281
     1
  3
ADSK_XREC_LAYER_RECONCILED
360
117D
  0
DICTIONARY
  5
117E
330
4E
100
AcDbDictionary
280
     1
281
     1
  3
ADSK_XREC_LAYER_RECONCILED
360
117F
  0
DICTIONARY
  5
1180
330
4F
100
AcDbDictionary
280
     1
281
     1
  3
ADSK_XREC_LAYER_RECONCILED
360
1181
  0
DICTIONARY
  5
1182
330
50
100
AcDbDictionary
280
     1
281
     1
  3
ADSK_XREC_LAYER_RECONCILED
360
1183
  0
DICTIONARY
  5
1184
330
51
100
AcDbDictionary
280
     1
281
     1
  3
ADSK_XREC_LAYER_RECONCILED
360
1185
  0
DICTIONARY
  5
1186
330
52
100
AcDbDictionary
280
     1
281
     1
  3
ADSK_XREC_LAYER_RECONCILED
360
1187
  0
DICTIONARY
  5
1188
330
53
100
AcDbDictionary
280
     1
281
     1
  3
ADSK_XREC_LAYER_RECONCILED
360
1189
  0
DICTIONARY
  5
118A
330
54
100
AcDbDictionary
280
     1
281
     1
  3
ADSK_XREC_LAYER_RECONCILED
360
118B
  0
DICTIONARY
  5
118C
330
55
100
AcDbDictionary
280
     1
281
     1
  3
ADSK_XREC_LAYER_RECONCILED
360
118D
  0
DICTIONARY
  5
118E
330
56
100
AcDbDictionary
280
     1
281
     1
  3
ADSK_XREC_LAYER_RECONCILED
360
118F
  0
DICTIONARY
  5
1190
330
57
100
AcDbDictionary
280
     1
281
     1
  3
ADSK_XREC_LAYER_RECONCILED
360
1191
  0
DICTIONARY
  5
1192
330
58
100
AcDbDictionary
280
     1
281
     1
  3
ADSK_XREC_LAYER_RECONCILED
360
1193
  0
DICTIONARY
  5
1194
330
59
100
AcDbDictionary
280
     1
281
     1
  3
ADSK_XREC_LAYER_RECONCILED
360
1195
  0
DICTIONARY
  5
1196
330
5A
100
AcDbDictionary
280
     1
281
     1
  3
ADSK_XREC_LAYER_RECONCILED
360
1197
  0
DICTIONARY
  5
1198
330
5B
100
AcDbDictionary
280
     1
281
     1
  3
ADSK_XREC_LAYER_RECONCILED
360
1199
  0
DICTIONARY
  5
119A
330
5C
100
AcDbDictionary
280
     1
281
     1
  3
ADSK_XREC_LAYER_RECONCILED
360
119B
  0
DICTIONARY
  5
119C
330
5D
100
AcDbDictionary
280
     1
281
     1
  3
ADSK_XREC_LAYER_RECONCILED
360
119D
  0
DICTIONARY
  5
119E
330
5E
100
AcDbDictionary
280
     1
281
     1
  3
ADSK_XREC_LAYER_RECONCILED
360
119F
  0
DICTIONARY
  5
11A0
330
5F
100
AcDbDictionary
280
     1
281
     1
  3
ADSK_XREC_LAYER_RECONCILED
360
11A1
  0
DICTIONARY
  5
11A2
330
60
100
AcDbDictionary
280
     1
281
     1
  3
ADSK_XREC_LAYER_RECONCILED
360
11A3
  0
DICTIONARY
  5
11A4
330
61
100
AcDbDictionary
280
     1
281
     1
  3
ADSK_XREC_LAYER_RECONCILED
360
11A5
  0
DICTIONARY
  5
11A6
330
62
100
AcDbDictionary
280
     1
281
     1
  3
ADSK_XREC_LAYER_RECONCILED
360
11A7
  0
DICTIONARY
  5
11A8
330
63
100
AcDbDictionary
280
     1
281
     1
  3
ADSK_XREC_LAYER_RECONCILED
360
11A9
  0
DICTIONARY
  5
11AA
330
64
100
AcDbDictionary
280
     1
281
     1
  3
ADSK_XREC_LAYER_RECONCILED
360
11AB
  0
DICTIONARY
  5
11AC
330
65
100
AcDbDictionary
280
     1
281
     1
  3
ADSK_XREC_LAYER_RECONCILED
360
11AD
  0
DICTIONARY
  5
11AE
330
66
100
AcDbDictionary
280
     1
281
     1
  3
ADSK_XREC_LAYER_RECONCILED
360
11AF
  0
DICTIONARY
  5
11B0
330
67
100
AcDbDictionary
280
     1
281
     1
  3
ADSK_XREC_LAYER_RECONCILED
360
11B1
  0
DICTIONARY
  5
11B2
330
68
100
AcDbDictionary
280
     1
281
     1
  3
ADSK_XREC_LAYER_RECONCILED
360
11B3
  0
DICTIONARY
  5
11B4
330
69
100
AcDbDictionary
280
     1
281
     1
  3
ADSK_XREC_LAYER_RECONCILED
360
11B5
  0
DICTIONARY
  5
11B6
330
6A
100
AcDbDictionary
280
     1
281
     1
  3
ADSK_XREC_LAYER_RECONCILED
360
11B7
  0
DICTIONARY
  5
11B8
330
6B
100
AcDbDictionary
280
     1
281
     1
  3
ADSK_XREC_LAYER_RECONCILED
360
11B9
  0
DICTIONARY
  5
11BA
330
6C
100
AcDbDictionary
280
     1
281
     1
  3
ADSK_XREC_LAYER_RECONCILED
360
11BB
  0
DICTIONARY
  5
11BC
330
6D
100
AcDbDictionary
280
     1
281
     1
  3
ADSK_XREC_LAYER_RECONCILED
360
11BD
  0
DICTIONARY
  5
11BE
330
6E
100
AcDbDictionary
280
     1
281
     1
  3
ADSK_XREC_LAYER_RECONCILED
360
11BF
  0
DICTIONARY
  5
11C0
330
6F
100
AcDbDictionary
280
     1
281
     1
  3
ADSK_XREC_LAYER_RECONCILED
360
11C1
  0
DICTIONARY
  5
11C2
330
70
100
AcDbDictionary
280
     1
281
     1
  3
ADSK_XREC_LAYER_RECONCILED
360
11C3
  0
DICTIONARY
  5
11C4
330
71
100
AcDbDictionary
280
     1
281
     1
  3
ADSK_XREC_LAYER_RECONCILED
360
11C5
  0
DICTIONARY
  5
11C6
330
72
100
AcDbDictionary
280
     1
281
     1
  3
ADSK_XREC_LAYER_RECONCILED
360
11C7
  0
DICTIONARY
  5
11C8
330
73
100
AcDbDictionary
280
     1
281
     1
  3
ADSK_XREC_LAYER_RECONCILED
360
11C9
  0
DICTIONARY
  5
11CA
330
74
100
AcDbDictionary
280
     1
281
     1
  3
ADSK_XREC_LAYER_RECONCILED
360
11CB
  0
DICTIONARY
  5
11CC
330
75
100
AcDbDictionary
280
     1
281
     1
  3
ADSK_XREC_LAYER_RECONCILED
360
11CD
  0
DICTIONARY
  5
11CE
330
76
100
AcDbDictionary
280
     1
281
     1
  3
ADSK_XREC_LAYER_RECONCILED
360
11CF
  0
DICTIONARY
  5
11D0
330
77
100
AcDbDictionary
280
     1
281
     1
  3
ADSK_XREC_LAYER_RECONCILED
360
11D1
  0
DICTIONARY
  5
11D2
330
78
100
AcDbDictionary
280
     1
281
     1
  3
ADSK_XREC_LAYER_RECONCILED
360
11D3
  0
DICTIONARY
  5
11D4
330
79
100
AcDbDictionary
280
     1
281
     1
  3
ADSK_XREC_LAYER_RECONCILED
360
11D5
  0
DICTIONARY
  5
11D6
330
7A
100
AcDbDictionary
280
     1
281
     1
  3
ADSK_XREC_LAYER_RECONCILED
360
11D7
  0
DICTIONARY
  5
11D8
330
7B
100
AcDbDictionary
280
     1
281
     1
  3
ADSK_XREC_LAYER_RECONCILED
360
11D9
  0
DICTIONARY
  5
11DA
330
7C
100
AcDbDictionary
280
     1
281
     1
  3
ADSK_XREC_LAYER_RECONCILED
360
11DB
  0
DICTIONARY
  5
11DC
330
7D
100
AcDbDictionary
280
     1
281
     1
  3
ADSK_XREC_LAYER_RECONCILED
360
11DD
  0
DICTIONARY
  5
11DE
330
7E
100
AcDbDictionary
280
     1
281
     1
  3
ADSK_XREC_LAYER_RECONCILED
360
11DF
  0
DICTIONARY
  5
11E0
330
7F
100
AcDbDictionary
280
     1
281
     1
  3
ADSK_XREC_LAYER_RECONCILED
360
11E1
  0
DICTIONARY
  5
11E2
330
80
100
AcDbDictionary
280
     1
281
     1
  3
ADSK_XREC_LAYER_RECONCILED
360
11E3
  0
DICTIONARY
  5
11E4
330
81
100
AcDbDictionary
280
     1
281
     1
  3
ADSK_XREC_LAYER_RECONCILED
360
11E5
  0
DICTIONARY
  5
11E6
330
82
100
AcDbDictionary
280
     1
281
     1
  3
ADSK_XREC_LAYER_RECONCILED
360
11E7
  0
DICTIONARY
  5
11E8
330
83
100
AcDbDictionary
280
     1
281
     1
  3
ADSK_XREC_LAYER_RECONCILED
360
11E9
  0
DICTIONARY
  5
11EA
330
84
100
AcDbDictionary
280
     1
281
     1
  3
ADSK_XREC_LAYER_RECONCILED
360
11EB
  0
DICTIONARY
  5
11EC
330
85
100
AcDbDictionary
280
     1
281
     1
  3
ADSK_XREC_LAYER_RECONCILED
360
11ED
  0
DICTIONARY
  5
11EE
330
86
100
AcDbDictionary
280
     1
281
     1
  3
ADSK_XREC_LAYER_RECONCILED
360
11EF
  0
DICTIONARY
  5
11F0
330
87
100
AcDbDictionary
280
     1
281
     1
  3
ADSK_XREC_LAYER_RECONCILED
360
11F1
  0
DICTIONARY
  5
11F2
330
88
100
AcDbDictionary
280
     1
281
     1
  3
ADSK_XREC_LAYER_RECONCILED
360
11F3
  0
DICTIONARY
  5
11F4
330
89
100
AcDbDictionary
280
     1
281
     1
  3
ADSK_XREC_LAYER_RECONCILED
360
11F5
  0
DICTIONARY
  5
11F6
330
8A
100
AcDbDictionary
280
     1
281
     1
  3
ADSK_XREC_LAYER_RECONCILED
360
11F7
  0
DICTIONARY
  5
11F8
330
8B
100
AcDbDictionary
280
     1
281
     1
  3
ADSK_XREC_LAYER_RECONCILED
360
11F9
  0
DICTIONARY
  5
11FA
330
8C
100
AcDbDictionary
280
     1
281
     1
  3
ADSK_XREC_LAYER_RECONCILED
360
11FB
  0
DICTIONARY
  5
11FC
330
8D
100
AcDbDictionary
280
     1
281
     1
  3
ADSK_XREC_LAYER_RECONCILED
360
11FD
  0
DICTIONARY
  5
11FE
330
8E
100
AcDbDictionary
280
     1
281
     1
  3
ADSK_XREC_LAYER_RECONCILED
360
11FF
  0
DICTIONARY
  5
1200
330
8F
100
AcDbDictionary
280
     1
281
     1
  3
ADSK_XREC_LAYER_RECONCILED
360
1201
  0
DICTIONARY
  5
1202
330
90
100
AcDbDictionary
280
     1
281
     1
  3
ADSK_XREC_LAYER_RECONCILED
360
1203
  0
DICTIONARY
  5
1204
330
91
100
AcDbDictionary
280
     1
281
     1
  3
ADSK_XREC_LAYER_RECONCILED
360
1205
  0
DICTIONARY
  5
1206
330
92
100
AcDbDictionary
280
     1
281
     1
  3
ADSK_XREC_LAYER_RECONCILED
360
1207
  0
DICTIONARY
  5
1208
330
93
100
AcDbDictionary
280
     1
281
     1
  3
ADSK_XREC_LAYER_RECONCILED
360
1209
  0
DICTIONARY
  5
120A
330
94
100
AcDbDictionary
280
     1
281
     1
  3
ADSK_XREC_LAYER_RECONCILED
360
120B
  0
DICTIONARY
  5
120C
330
95
100
AcDbDictionary
280
     1
281
     1
  3
ADSK_XREC_LAYER_RECONCILED
360
120D
  0
DICTIONARY
  5
120E
330
96
100
AcDbDictionary
280
     1
281
     1
  3
ADSK_XREC_LAYER_RECONCILED
360
120F
  0
DICTIONARY
  5
1210
330
97
100
AcDbDictionary
280
     1
281
     1
  3
ADSK_XREC_LAYER_RECONCILED
360
1211
  0
DICTIONARY
  5
1212
330
98
100
AcDbDictionary
280
     1
281
     1
  3
ADSK_XREC_LAYER_RECONCILED
360
1213
  0
DICTIONARY
  5
1214
330
99
100
AcDbDictionary
280
     1
281
     1
  3
ADSK_XREC_LAYER_RECONCILED
360
1215
  0
DICTIONARY
  5
1216
330
9A
100
AcDbDictionary
280
     1
281
     1
  3
ADSK_XREC_LAYER_RECONCILED
360
1217
  0
DICTIONARY
  5
1218
330
9B
100
AcDbDictionary
280
     1
281
     1
  3
ADSK_XREC_LAYER_RECONCILED
360
1219
  0
DICTIONARY
  5
121A
330
9C
100
AcDbDictionary
280
     1
281
     1
  3
ADSK_XREC_LAYER_RECONCILED
360
121B
  0
DICTIONARY
  5
121C
330
9D
100
AcDbDictionary
280
     1
281
     1
  3
ADSK_XREC_LAYER_RECONCILED
360
121D
  0
DICTIONARY
  5
121E
330
9E
100
AcDbDictionary
280
     1
281
     1
  3
ADSK_XREC_LAYER_RECONCILED
360
121F
  0
DICTIONARY
  5
1220
330
9F
100
AcDbDictionary
280
     1
281
     1
  3
ADSK_XREC_LAYER_RECONCILED
360
1221
  0
DICTIONARY
  5
1222
330
A0
100
AcDbDictionary
280
     1
281
     1
  3
ADSK_XREC_LAYER_RECONCILED
360
1223
  0
DICTIONARY
  5
1224
330
A1
100
AcDbDictionary
280
     1
281
     1
  3
ADSK_XREC_LAYER_RECONCILED
360
1225
  0
DICTIONARY
  5
1226
330
A2
100
AcDbDictionary
280
     1
281
     1
  3
ADSK_XREC_LAYER_RECONCILED
360
1227
  0
DICTIONARY
  5
1228
330
A3
100
AcDbDictionary
280
     1
281
     1
  3
ADSK_XREC_LAYER_RECONCILED
360
1229
  0
DICTIONARY
  5
122A
330
A4
100
AcDbDictionary
280
     1
281
     1
  3
ADSK_XREC_LAYER_RECONCILED
360
122B
  0
DICTIONARY
  5
122C
330
A5
100
AcDbDictionary
280
     1
281
     1
  3
ADSK_XREC_LAYER_RECONCILED
360
122D
  0
DICTIONARY
  5
122E
330
A6
100
AcDbDictionary
280
     1
281
     1
  3
ADSK_XREC_LAYER_RECONCILED
360
122F
  0
DICTIONARY
  5
1230
330
A7
100
AcDbDictionary
280
     1
281
     1
  3
ADSK_XREC_LAYER_RECONCILED
360
1231
  0
DICTIONARY
  5
1232
330
A8
100
AcDbDictionary
280
     1
281
     1
  3
ADSK_XREC_LAYER_RECONCILED
360
1233
  0
DICTIONARY
  5
1234
330
A9
100
AcDbDictionary
280
     1
281
     1
  3
ADSK_XREC_LAYER_RECONCILED
360
1235
  0
DICTIONARY
  5
1236
330
AA
100
AcDbDictionary
280
     1
281
     1
  3
ADSK_XREC_LAYER_RECONCILED
360
1237
  0
DICTIONARY
  5
1238
330
AB
100
AcDbDictionary
280
     1
281
     1
  3
ADSK_XREC_LAYER_RECONCILED
360
1239
  0
DICTIONARY
  5
123A
330
AC
100
AcDbDictionary
280
     1
281
     1
  3
ADSK_XREC_LAYER_RECONCILED
360
123B
  0
DICTIONARY
  5
123C
330
AD
100
AcDbDictionary
280
     1
281
     1
  3
ADSK_XREC_LAYER_RECONCILED
360
123D
  0
DICTIONARY
  5
123E
330
AE
100
AcDbDictionary
280
     1
281
     1
  3
ADSK_XREC_LAYER_RECONCILED
360
123F
  0
DICTIONARY
  5
1240
330
AF
100
AcDbDictionary
280
     1
281
     1
  3
ADSK_XREC_LAYER_RECONCILED
360
1241
  0
DICTIONARY
  5
1242
330
B0
100
AcDbDictionary
280
     1
281
     1
  3
ADSK_XREC_LAYER_RECONCILED
360
1243
  0
DICTIONARY
  5
1244
330
B1
100
AcDbDictionary
280
     1
281
     1
  3
ADSK_XREC_LAYER_RECONCILED
360
1245
  0
DICTIONARY
  5
1246
330
B2
100
AcDbDictionary
280
     1
281
     1
  3
ADSK_XREC_LAYER_RECONCILED
360
1247
  0
DICTIONARY
  5
1248
330
B3
100
AcDbDictionary
280
     1
281
     1
  3
ADSK_XREC_LAYER_RECONCILED
360
1249
  0
DICTIONARY
  5
124A
330
B4
100
AcDbDictionary
280
     1
281
     1
  3
ADSK_XREC_LAYER_RECONCILED
360
124B
  0
DICTIONARY
  5
124C
330
B5
100
AcDbDictionary
280
     1
281
     1
  3
ADSK_XREC_LAYER_RECONCILED
360
124D
  0
DICTIONARY
  5
124E
330
B6
100
AcDbDictionary
280
     1
281
     1
  3
ADSK_XREC_LAYER_RECONCILED
360
124F
  0
DICTIONARY
  5
1250
330
B7
100
AcDbDictionary
280
     1
281
     1
  3
ADSK_XREC_LAYER_RECONCILED
360
1251
  0
DICTIONARY
  5
1252
330
B8
100
AcDbDictionary
280
     1
281
     1
  3
ADSK_XREC_LAYER_RECONCILED
360
1253
  0
DICTIONARY
  5
1254
330
B9
100
AcDbDictionary
280
     1
281
     1
  3
ADSK_XREC_LAYER_RECONCILED
360
1255
  0
DICTIONARY
  5
1256
330
BA
100
AcDbDictionary
280
     1
281
     1
  3
ADSK_XREC_LAYER_RECONCILED
360
1257
  0
DICTIONARY
  5
1258
330
BB
100
AcDbDictionary
280
     1
281
     1
  3
ADSK_XREC_LAYER_RECONCILED
360
1259
  0
DICTIONARY
  5
125A
330
BC
100
AcDbDictionary
280
     1
281
     1
  3
ADSK_XREC_LAYER_RECONCILED
360
125B
  0
DICTIONARY
  5
125C
330
BD
100
AcDbDictionary
280
     1
281
     1
  3
ADSK_XREC_LAYER_RECONCILED
360
125D
  0
DICTIONARY
  5
125E
330
BE
100
AcDbDictionary
280
     1
281
     1
  3
ADSK_XREC_LAYER_RECONCILED
360
125F
  0
DICTIONARY
  5
1260
330
BF
100
AcDbDictionary
280
     1
281
     1
  3
ADSK_XREC_LAYER_RECONCILED
360
1261
  0
DICTIONARY
  5
1262
330
C0
100
AcDbDictionary
280
     1
281
     1
  3
ADSK_XREC_LAYER_RECONCILED
360
1263
  0
DICTIONARY
  5
1264
330
C1
100
AcDbDictionary
280
     1
281
     1
  3
ADSK_XREC_LAYER_RECONCILED
360
1265
  0
DICTIONARY
  5
1266
330
C2
100
AcDbDictionary
280
     1
281
     1
  3
ADSK_XREC_LAYER_RECONCILED
360
1267
  0
DICTIONARY
  5
1268
330
C3
100
AcDbDictionary
280
     1
281
     1
  3
ADSK_XREC_LAYER_RECONCILED
360
1269
  0
DICTIONARY
  5
126A
330
C4
100
AcDbDictionary
280
     1
281
     1
  3
ADSK_XREC_LAYER_RECONCILED
360
126B
  0
DICTIONARY
  5
126C
330
C5
100
AcDbDictionary
280
     1
281
     1
  3
ADSK_XREC_LAYER_RECONCILED
360
126D
  0
DICTIONARY
  5
126E
330
C6
100
AcDbDictionary
280
     1
281
     1
  3
ADSK_XREC_LAYER_RECONCILED
360
126F
  0
DICTIONARY
  5
1270
330
C7
100
AcDbDictionary
280
     1
281
     1
  3
ADSK_XREC_LAYER_RECONCILED
360
1271
  0
DICTIONARY
  5
1272
330
C8
100
AcDbDictionary
280
     1
281
     1
  3
ADSK_XREC_LAYER_RECONCILED
360
1273
  0
DICTIONARY
  5
1274
330
C9
100
AcDbDictionary
280
     1
281
     1
  3
ADSK_XREC_LAYER_RECONCILED
360
1275
  0
DICTIONARY
  5
1276
330
CA
100
AcDbDictionary
280
     1
281
     1
  3
ADSK_XREC_LAYER_RECONCILED
360
1277
  0
DICTIONARY
  5
1278
330
CB
100
AcDbDictionary
280
     1
281
     1
  3
ADSK_XREC_LAYER_RECONCILED
360
1279
  0
DICTIONARY
  5
127A
330
CC
100
AcDbDictionary
280
     1
281
     1
  3
ADSK_XREC_LAYER_RECONCILED
360
127B
  0
DICTIONARY
  5
127C
330
CD
100
AcDbDictionary
280
     1
281
     1
  3
ADSK_XREC_LAYER_RECONCILED
360
127D
  0
DICTIONARY
  5
127E
330
CE
100
AcDbDictionary
280
     1
281
     1
  3
ADSK_XREC_LAYER_RECONCILED
360
127F
  0
DICTIONARY
  5
1280
330
CF
100
AcDbDictionary
280
     1
281
     1
  3
ADSK_XREC_LAYER_RECONCILED
360
1281
  0
DICTIONARY
  5
1282
330
D0
100
AcDbDictionary
280
     1
281
     1
  3
ADSK_XREC_LAYER_RECONCILED
360
1283
  0
DICTIONARY
  5
1284
330
D1
100
AcDbDictionary
280
     1
281
     1
  3
ADSK_XREC_LAYER_RECONCILED
360
1285
  0
DICTIONARY
  5
1286
330
D2
100
AcDbDictionary
280
     1
281
     1
  3
ADSK_XREC_LAYER_RECONCILED
360
1287
  0
DICTIONARY
  5
1288
330
D3
100
AcDbDictionary
280
     1
281
     1
  3
ADSK_XREC_LAYER_RECONCILED
360
1289
  0
DICTIONARY
  5
128A
330
D4
100
AcDbDictionary
280
     1
281
     1
  3
ADSK_XREC_LAYER_RECONCILED
360
128B
  0
DICTIONARY
  5
128C
330
D5
100
AcDbDictionary
280
     1
281
     1
  3
ADSK_XREC_LAYER_RECONCILED
360
128D
  0
DICTIONARY
  5
128E
330
D6
100
AcDbDictionary
280
     1
281
     1
  3
ADSK_XREC_LAYER_RECONCILED
360
128F
  0
DICTIONARY
  5
1290
330
D7
100
AcDbDictionary
280
     1
281
     1
  3
ADSK_XREC_LAYER_RECONCILED
360
1291
  0
DICTIONARY
  5
1292
330
D8
100
AcDbDictionary
280
     1
281
     1
  3
ADSK_XREC_LAYER_RECONCILED
360
1293
  0
DICTIONARY
  5
1294
330
D9
100
AcDbDictionary
280
     1
281
     1
  3
ADSK_XREC_LAYER_RECONCILED
360
1295
  0
DICTIONARY
  5
1296
330
DA
100
AcDbDictionary
280
     1
281
     1
  3
ADSK_XREC_LAYER_RECONCILED
360
1297
  0
DICTIONARY
  5
1298
330
DB
100
AcDbDictionary
280
     1
281
     1
  3
ADSK_XREC_LAYER_RECONCILED
360
1299
  0
DICTIONARY
  5
129A
330
DC
100
AcDbDictionary
280
     1
281
     1
  3
ADSK_XREC_LAYER_RECONCILED
360
129B
  0
DICTIONARY
  5
129C
330
DD
100
AcDbDictionary
280
     1
281
     1
  3
ADSK_XREC_LAYER_RECONCILED
360
129D
  0
DICTIONARY
  5
129E
330
DE
100
AcDbDictionary
280
     1
281
     1
  3
ADSK_XREC_LAYER_RECONCILED
360
129F
  0
DICTIONARY
  5
12A0
330
DF
100
AcDbDictionary
280
     1
281
     1
  3
ADSK_XREC_LAYER_RECONCILED
360
12A1
  0
DICTIONARY
  5
12A2
330
E0
100
AcDbDictionary
280
     1
281
     1
  3
ADSK_XREC_LAYER_RECONCILED
360
12A3
  0
DICTIONARY
  5
12A4
330
E1
100
AcDbDictionary
280
     1
281
     1
  3
ADSK_XREC_LAYER_RECONCILED
360
12A5
  0
DICTIONARY
  5
12A6
330
D98
100
AcDbDictionary
280
     1
281
     1
  3
ADSK_XREC_LAYER_RECONCILED
360
12A7
  0
DICTIONARY
  5
B9C
330
22
100
AcDbDictionary
280
     1
281
     1
  3
ACAD_SORTENTS
360
B9D
  0
DICTIONARY
  5
ED3
330
ED2
100
AcDbDictionary
280
     1
281
     1
  3
ACAD_SORTENTS
360
ED4
  0
DICTIONARY
  5
1B
102
{ACAD_REACTORS
330
C
102
}
330
C
100
AcDbDictionary
281
     1
  0
DICTIONARY
  5
D
102
{ACAD_REACTORS
330
C
102
}
330
C
100
AcDbDictionary
281
     1
  0
DICTIONARY
  5
19
102
{ACAD_REACTORS
330
C
102
}
330
C
100
AcDbDictionary
281
     1
  3
Layout1
350
21
  3
Model
350
25
  0
DICTIONARY
  5
1A
102
{ACAD_REACTORS
330
C
102
}
330
C
100
AcDbDictionary
281
     1
  3
ByBlock
350
D4E
  3
ByLayer
350
D46
  3
Global
350
D56
  0
DICTIONARY
  5
D91
102
{ACAD_REACTORS
330
C
102
}
330
C
100
AcDbDictionary
281
     1
  3
Standard
350
D92
  0
DICTIONARY
  5
16
102
{ACAD_REACTORS
330
C
102
}
330
C
100
AcDbDictionary
281
     1
  3
Standard
350
17
  0
DICTIONARY
  5
18
102
{ACAD_REACTORS
330
C
102
}
330
C
100
AcDbDictionary
281
     1
  0
ACDBDICTIONARYWDFLT
  5
E
102
{ACAD_REACTORS
330
C
102
}
330
C
100
AcDbDictionary
281
     1
  3
Normal
350
F
100
AcDbDictionaryWithDefault
340
F
  0
DICTIONARY
  5
D6F
102
{ACAD_REACTORS
330
C
102
}
330
C
100
AcDbDictionary
281
     1
  3
A0
350
D70
  3
A1
350
D71
  3
A2
350
D72
  3
A3
350
D73
  3
A4
350
D74
  3
A5
350
D75
  3
A6
350
D76
  3
A7
350
D77
  3
A8
350
D78
  3
A9
350
D79
  3
B0
350
D7A
  3
B1
350
D7B
  3
B2
350
D7C
  3
B3
350
D7D
  3
B4
350
D7E
  3
B5
350
D7F
  3
B6
350
D80
  3
B7
350
D81
  3
B8
350
D82
  3
B9
350
D83
  3
C0
350
D84
  3
C1
350
D85
  3
C2
350
D86
  3
C3
350
D87
  3
C4
350
D88
  3
C5
350
D89
  3
C6
350
D8A
  3
C7
350
D8B
  3
C8
350
D8C
  3
C9
350
D8D
  3
D0
350
D8E
  3
D1
350
D8F
  3
D2
350
D90
  0
DICTIONARY
  5
1C
102
{ACAD_REACTORS
330
C
102
}
330
C
100
AcDbDictionary
281
     1
  3
Standard
350
1D
  0
DICTIONARY
  5
D5E
102
{ACAD_REACTORS
330
C
102
}
330
C
100
AcDbDictionary
281
     1
  3
2dWireframe
350
D64
  3
3D Hidden
350
D66
  3
3dWireframe
350
D65
  3
Basic
350
D63
  3
Brighten
350
D6A
  3
ColorChange
350
D6E
  3
Conceptual
350
D67
  3
Dim
350
D69
  3
EdgeColorOff
350
136F
  3
Facepattern
350
D6D
  3
Flat
350
D5F
  3
FlatWithEdges
350
D60
  3
Gouraud
350
D61
  3
GouraudWithEdges
350
D62
  3
Hidden
350
137A
  3
JitterOff
350
136D
  3
Linepattern
350
D6C
  3
OverhangOff
350
136E
  3
Realistic
350
D68
  3
Shaded
350
137F
  3
Shaded with edges
350
137E
  3
Shades of Gray
350
137B
  3
Sketchy
350
137C
  3
Thicken
350
D6B
  3
Wireframe
350
1379
  3
X-Ray
350
137D
  0
XRECORD
  5
150E
102
{ACAD_REACTORS
330
C
102
}
330
C
100
AcDbXrecord
280
     1
 90
        1
330
1D
330
138D
330
1395
  0
DICTIONARY
  5
B93
102
{ACAD_REACTORS
330
C
102
}
330
C
100
AcDbDictionary
281
     1
  3
CANNOSCALE
350
136B
  3
CMLEADERSTYLE
350
136A
  3
CTABLESTYLE
350
B94
  3
DIMASSOC
350
14D3
  3
INDEXCTL
350
14D1
  3
LAYEREVAL
350
1376
  3
LAYERNOTIFY
350
1377
  3
LIGHTINGUNITS
350
1375
  3
MSLTSCALE
350
1374
  3
SORTENTS
350
14D0
  3
XCLIPFRAME
350
150C
  0
XRECORD
  5
150F
102
{ACAD_REACTORS
330
C
102
}
330
C
100
AcDbXrecord
280
     1
  1
DWGPROPS COOKIE
  2

  3

  4

  6

  7

  8
de1
  9

300
=
301
=
302
=
303
=
304
=
305
=
306
=
307
=
308
=
309
=
 40
0.0707652662037037
 41
2453846.533579097
 42
2457851.662738669
  1

 90
        0
  0
DICTIONARY
  5
F19
102
{ACAD_REACTORS
330
F18
102
}
330
F18
100
AcDbDictionary
281
     1
  0
XRECORD
  5
113B
102
{ACAD_REACTORS
330
113A
102
}
330
113A
100
AcDbXrecord
280
     1
290
     1
  0
XRECORD
  5
113D
102
{ACAD_REACTORS
330
113C
102
}
330
113C
100
AcDbXrecord
280
     1
290
     1
  0
XRECORD
  5
113F
102
{ACAD_REACTORS
330
113E
102
}
330
113E
100
AcDbXrecord
280
     1
290
     1
  0
XRECORD
  5
1141
102
{ACAD_REACTORS
330
1140
102
}
330
1140
100
AcDbXrecord
280
     1
290
     1
  0
XRECORD
  5
1143
102
{ACAD_REACTORS
330
1142
102
}
330
1142
100
AcDbXrecord
280
     1
290
     1
  0
XRECORD
  5
1145
102
{ACAD_REACTORS
330
1144
102
}
330
1144
100
AcDbXrecord
280
     1
290
     1
  0
XRECORD
  5
1147
102
{ACAD_REACTORS
330
1146
102
}
330
1146
100
AcDbXrecord
280
     1
290
     1
  0
XRECORD
  5
1149
102
{ACAD_REACTORS
330
1148
102
}
330
1148
100
AcDbXrecord
280
     1
290
     1
  0
XRECORD
  5
114B
102
{ACAD_REACTORS
330
114A
102
}
330
114A
100
AcDbXrecord
280
     1
290
     1
  0
XRECORD
  5
114D
102
{ACAD_REACTORS
330
114C
102
}
330
114C
100
AcDbXrecord
280
     1
290
     1
  0
XRECORD
  5
114F
102
{ACAD_REACTORS
330
114E
102
}
330
114E
100
AcDbXrecord
280
     1
290
     1
  0
XRECORD
  5
1151
102
{ACAD_REACTORS
330
1150
102
}
330
1150
100
AcDbXrecord
280
     1
290
     1
  0
XRECORD
  5
1153
102
{ACAD_REACTORS
330
1152
102
}
330
1152
100
AcDbXrecord
280
     1
290
     1
  0
XRECORD
  5
1155
102
{ACAD_REACTORS
330
1154
102
}
330
1154
100
AcDbXrecord
280
     1
290
     1
  0
XRECORD
  5
1157
102
{ACAD_REACTORS
330
1156
102
}
330
1156
100
AcDbXrecord
280
     1
290
     1
  0
XRECORD
  5
1159
102
{ACAD_REACTORS
330
1158
102
}
330
1158
100
AcDbXrecord
280
     1
290
     1
  0
XRECORD
  5
115B
102
{ACAD_REACTORS
330
115A
102
}
330
115A
100
AcDbXrecord
280
     1
290
     1
  0
XRECORD
  5
115D
102
{ACAD_REACTORS
330
115C
102
}
330
115C
100
AcDbXrecord
280
     1
290
     1
  0
XRECORD
  5
115F
102
{ACAD_REACTORS
330
115E
102
}
330
115E
100
AcDbXrecord
280
     1
290
     1
  0
XRECORD
  5
1161
102
{ACAD_REACTORS
330
1160
102
}
330
1160
100
AcDbXrecord
280
     1
290
     1
  0
XRECORD
  5
1163
102
{ACAD_REACTORS
330
1162
102
}
330
1162
100
AcDbXrecord
280
     1
290
     1
  0
XRECORD
  5
1165
102
{ACAD_REACTORS
330
1164
102
}
330
1164
100
AcDbXrecord
280
     1
290
     1
  0
XRECORD
  5
1167
102
{ACAD_REACTORS
330
1166
102
}
330
1166
100
AcDbXrecord
280
     1
290
     1
  0
XRECORD
  5
1169
102
{ACAD_REACTORS
330
1168
102
}
330
1168
100
AcDbXrecord
280
     1
290
     1
  0
XRECORD
  5
116B
102
{ACAD_REACTORS
330
116A
102
}
330
116A
100
AcDbXrecord
280
     1
290
     1
  0
XRECORD
  5
116D
102
{ACAD_REACTORS
330
116C
102
}
330
116C
100
AcDbXrecord
280
     1
290
     1
  0
XRECORD
  5
116F
102
{ACAD_REACTORS
330
116E
102
}
330
116E
100
AcDbXrecord
280
     1
290
     1
  0
XRECORD
  5
1171
102
{ACAD_REACTORS
330
1170
102
}
330
1170
100
AcDbXrecord
280
     1
290
     1
  0
XRECORD
  5
1173
102
{ACAD_REACTORS
330
1172
102
}
330
1172
100
AcDbXrecord
280
     1
290
     1
  0
XRECORD
  5
1175
102
{ACAD_REACTORS
330
1174
102
}
330
1174
100
AcDbXrecord
280
     1
290
     1
  0
XRECORD
  5
1177
102
{ACAD_REACTORS
330
1176
102
}
330
1176
100
AcDbXrecord
280
     1
290
     1
  0
XRECORD
  5
1179
102
{ACAD_REACTORS
330
1178
102
}
330
1178
100
AcDbXrecord
280
     1
290
     1
  0
XRECORD
  5
117B
102
{ACAD_REACTORS
330
117A
102
}
330
117A
100
AcDbXrecord
280
     1
290
     1
  0
XRECORD
  5
117D
102
{ACAD_REACTORS
330
117C
102
}
330
117C
100
AcDbXrecord
280
     1
290
     1
  0
XRECORD
  5
117F
102
{ACAD_REACTORS
330
117E
102
}
330
117E
100
AcDbXrecord
280
     1
290
     1
  0
XRECORD
  5
1181
102
{ACAD_REACTORS
330
1180
102
}
330
1180
100
AcDbXrecord
280
     1
290
     1
  0
XRECORD
  5
1183
102
{ACAD_REACTORS
330
1182
102
}
330
1182
100
AcDbXrecord
280
     1
290
     1
  0
XRECORD
  5
1185
102
{ACAD_REACTORS
330
1184
102
}
330
1184
100
AcDbXrecord
280
     1
290
     1
  0
XRECORD
  5
1187
102
{ACAD_REACTORS
330
1186
102
}
330
1186
100
AcDbXrecord
280
     1
290
     1
  0
XRECORD
  5
1189
102
{ACAD_REACTORS
330
1188
102
}
330
1188
100
AcDbXrecord
280
     1
290
     1
  0
XRECORD
  5
118B
102
{ACAD_REACTORS
330
118A
102
}
330
118A
100
AcDbXrecord
280
     1
290
     1
  0
XRECORD
  5
118D
102
{ACAD_REACTORS
330
118C
102
}
330
118C
100
AcDbXrecord
280
     1
290
     1
  0
XRECORD
  5
118F
102
{ACAD_REACTORS
330
118E
102
}
330
118E
100
AcDbXrecord
280
     1
290
     1
  0
XRECORD
  5
1191
102
{ACAD_REACTORS
330
1190
102
}
330
1190
100
AcDbXrecord
280
     1
290
     1
  0
XRECORD
  5
1193
102
{ACAD_REACTORS
330
1192
102
}
330
1192
100
AcDbXrecord
280
     1
290
     1
  0
XRECORD
  5
1195
102
{ACAD_REACTORS
330
1194
102
}
330
1194
100
AcDbXrecord
280
     1
290
     1
  0
XRECORD
  5
1197
102
{ACAD_REACTORS
330
1196
102
}
330
1196
100
AcDbXrecord
280
     1
290
     1
  0
XRECORD
  5
1199
102
{ACAD_REACTORS
330
1198
102
}
330
1198
100
AcDbXrecord
280
     1
290
     1
  0
XRECORD
  5
119B
102
{ACAD_REACTORS
330
119A
102
}
330
119A
100
AcDbXrecord
280
     1
290
     1
  0
XRECORD
  5
119D
102
{ACAD_REACTORS
330
119C
102
}
330
119C
100
AcDbXrecord
280
     1
290
     1
  0
XRECORD
  5
119F
102
{ACAD_REACTORS
330
119E
102
}
330
119E
100
AcDbXrecord
280
     1
290
     1
  0
XRECORD
  5
11A1
102
{ACAD_REACTORS
330
11A0
102
}
330
11A0
100
AcDbXrecord
280
     1
290
     1
  0
XRECORD
  5
11A3
102
{ACAD_REACTORS
330
11A2
102
}
330
11A2
100
AcDbXrecord
280
     1
290
     1
  0
XRECORD
  5
11A5
102
{ACAD_REACTORS
330
11A4
102
}
330
11A4
100
AcDbXrecord
280
     1
290
     1
  0
XRECORD
  5
11A7
102
{ACAD_REACTORS
330
11A6
102
}
330
11A6
100
AcDbXrecord
280
     1
290
     1
  0
XRECORD
  5
11A9
102
{ACAD_REACTORS
330
11A8
102
}
330
11A8
100
AcDbXrecord
280
     1
290
     1
  0
XRECORD
  5
11AB
102
{ACAD_REACTORS
330
11AA
102
}
330
11AA
100
AcDbXrecord
280
     1
290
     1
  0
XRECORD
  5
11AD
102
{ACAD_REACTORS
330
11AC
102
}
330
11AC
100
AcDbXrecord
280
     1
290
     1
  0
XRECORD
  5
11AF
102
{ACAD_REACTORS
330
11AE
102
}
330
11AE
100
AcDbXrecord
280
     1
290
     1
  0
XRECORD
  5
11B1
102
{ACAD_REACTORS
330
11B0
102
}
330
11B0
100
AcDbXrecord
280
     1
290
     1
  0
XRECORD
  5
11B3
102
{ACAD_REACTORS
330
11B2
102
}
330
11B2
100
AcDbXrecord
280
     1
290
     1
  0
XRECORD
  5
11B5
102
{ACAD_REACTORS
330
11B4
102
}
330
11B4
100
AcDbXrecord
280
     1
290
     1
  0
XRECORD
  5
11B7
102
{ACAD_REACTORS
330
11B6
102
}
330
11B6
100
AcDbXrecord
280
     1
290
     1
  0
XRECORD
  5
11B9
102
{ACAD_REACTORS
330
11B8
102
}
330
11B8
100
AcDbXrecord
280
     1
290
     1
  0
XRECORD
  5
11BB
102
{ACAD_REACTORS
330
11BA
102
}
330
11BA
100
AcDbXrecord
280
     1
290
     1
  0
XRECORD
  5
11BD
102
{ACAD_REACTORS
330
11BC
102
}
330
11BC
100
AcDbXrecord
280
     1
290
     1
  0
XRECORD
  5
11BF
102
{ACAD_REACTORS
330
11BE
102
}
330
11BE
100
AcDbXrecord
280
     1
290
     1
  0
XRECORD
  5
11C1
102
{ACAD_REACTORS
330
11C0
102
}
330
11C0
100
AcDbXrecord
280
     1
290
     1
  0
XRECORD
  5
11C3
102
{ACAD_REACTORS
330
11C2
102
}
330
11C2
100
AcDbXrecord
280
     1
290
     1
  0
XRECORD
  5
11C5
102
{ACAD_REACTORS
330
11C4
102
}
330
11C4
100
AcDbXrecord
280
     1
290
     1
  0
XRECORD
  5
11C7
102
{ACAD_REACTORS
330
11C6
102
}
330
11C6
100
AcDbXrecord
280
     1
290
     1
  0
XRECORD
  5
11C9
102
{ACAD_REACTORS
330
11C8
102
}
330
11C8
100
AcDbXrecord
280
     1
290
     1
  0
XRECORD
  5
11CB
102
{ACAD_REACTORS
330
11CA
102
}
330
11CA
100
AcDbXrecord
280
     1
290
     1
  0
XRECORD
  5
11CD
102
{ACAD_REACTORS
330
11CC
102
}
330
11CC
100
AcDbXrecord
280
     1
290
     1
  0
XRECORD
  5
11CF
102
{ACAD_REACTORS
330
11CE
102
}
330
11CE
100
AcDbXrecord
280
     1
290
     1
  0
XRECORD
  5
11D1
102
{ACAD_REACTORS
330
11D0
102
}
330
11D0
100
AcDbXrecord
280
     1
290
     1
  0
XRECORD
  5
11D3
102
{ACAD_REACTORS
330
11D2
102
}
330
11D2
100
AcDbXrecord
280
     1
290
     1
  0
XRECORD
  5
11D5
102
{ACAD_REACTORS
330
11D4
102
}
330
11D4
100
AcDbXrecord
280
     1
290
     1
  0
XRECORD
  5
11D7
102
{ACAD_REACTORS
330
11D6
102
}
330
11D6
100
AcDbXrecord
280
     1
290
     1
  0
XRECORD
  5
11D9
102
{ACAD_REACTORS
330
11D8
102
}
330
11D8
100
AcDbXrecord
280
     1
290
     1
  0
XRECORD
  5
11DB
102
{ACAD_REACTORS
330
11DA
102
}
330
11DA
100
AcDbXrecord
280
     1
290
     1
  0
XRECORD
  5
11DD
102
{ACAD_REACTORS
330
11DC
102
}
330
11DC
100
AcDbXrecord
280
     1
290
     1
  0
XRECORD
  5
11DF
102
{ACAD_REACTORS
330
11DE
102
}
330
11DE
100
AcDbXrecord
280
     1
290
     1
  0
XRECORD
  5
11E1
102
{ACAD_REACTORS
330
11E0
102
}
330
11E0
100
AcDbXrecord
280
     1
290
     1
  0
XRECORD
  5
11E3
102
{ACAD_REACTORS
330
11E2
102
}
330
11E2
100
AcDbXrecord
280
     1
290
     1
  0
XRECORD
  5
11E5
102
{ACAD_REACTORS
330
11E4
102
}
330
11E4
100
AcDbXrecord
280
     1
290
     1
  0
XRECORD
  5
11E7
102
{ACAD_REACTORS
330
11E6
102
}
330
11E6
100
AcDbXrecord
280
     1
290
     1
  0
XRECORD
  5
11E9
102
{ACAD_REACTORS
330
11E8
102
}
330
11E8
100
AcDbXrecord
280
     1
290
     1
  0
XRECORD
  5
11EB
102
{ACAD_REACTORS
330
11EA
102
}
330
11EA
100
AcDbXrecord
280
     1
290
     1
  0
XRECORD
  5
11ED
102
{ACAD_REACTORS
330
11EC
102
}
330
11EC
100
AcDbXrecord
280
     1
290
     1
  0
XRECORD
  5
11EF
102
{ACAD_REACTORS
330
11EE
102
}
330
11EE
100
AcDbXrecord
280
     1
290
     1
  0
XRECORD
  5
11F1
102
{ACAD_REACTORS
330
11F0
102
}
330
11F0
100
AcDbXrecord
280
     1
290
     1
  0
XRECORD
  5
11F3
102
{ACAD_REACTORS
330
11F2
102
}
330
11F2
100
AcDbXrecord
280
     1
290
     1
  0
XRECORD
  5
11F5
102
{ACAD_REACTORS
330
11F4
102
}
330
11F4
100
AcDbXrecord
280
     1
290
     1
  0
XRECORD
  5
11F7
102
{ACAD_REACTORS
330
11F6
102
}
330
11F6
100
AcDbXrecord
280
     1
290
     1
  0
XRECORD
  5
11F9
102
{ACAD_REACTORS
330
11F8
102
}
330
11F8
100
AcDbXrecord
280
     1
290
     1
  0
XRECORD
  5
11FB
102
{ACAD_REACTORS
330
11FA
102
}
330
11FA
100
AcDbXrecord
280
     1
290
     1
  0
XRECORD
  5
11FD
102
{ACAD_REACTORS
330
11FC
102
}
330
11FC
100
AcDbXrecord
280
     1
290
     1
  0
XRECORD
  5
11FF
102
{ACAD_REACTORS
330
11FE
102
}
330
11FE
100
AcDbXrecord
280
     1
290
     1
  0
XRECORD
  5
1201
102
{ACAD_REACTORS
330
1200
102
}
330
1200
100
AcDbXrecord
280
     1
290
     1
  0
XRECORD
  5
1203
102
{ACAD_REACTORS
330
1202
102
}
330
1202
100
AcDbXrecord
280
     1
290
     1
  0
XRECORD
  5
1205
102
{ACAD_REACTORS
330
1204
102
}
330
1204
100
AcDbXrecord
280
     1
290
     1
  0
XRECORD
  5
1207
102
{ACAD_REACTORS
330
1206
102
}
330
1206
100
AcDbXrecord
280
     1
290
     1
  0
XRECORD
  5
1209
102
{ACAD_REACTORS
330
1208
102
}
330
1208
100
AcDbXrecord
280
     1
290
     1
  0
XRECORD
  5
120B
102
{ACAD_REACTORS
330
120A
102
}
330
120A
100
AcDbXrecord
280
     1
290
     1
  0
XRECORD
  5
120D
102
{ACAD_REACTORS
330
120C
102
}
330
120C
100
AcDbXrecord
280
     1
290
     1
  0
XRECORD
  5
120F
102
{ACAD_REACTORS
330
120E
102
}
330
120E
100
AcDbXrecord
280
     1
290
     1
  0
XRECORD
  5
1211
102
{ACAD_REACTORS
330
1210
102
}
330
1210
100
AcDbXrecord
280
     1
290
     1
  0
XRECORD
  5
1213
102
{ACAD_REACTORS
330
1212
102
}
330
1212
100
AcDbXrecord
280
     1
290
     1
  0
XRECORD
  5
1215
102
{ACAD_REACTORS
330
1214
102
}
330
1214
100
AcDbXrecord
280
     1
290
     1
  0
XRECORD
  5
1217
102
{ACAD_REACTORS
330
1216
102
}
330
1216
100
AcDbXrecord
280
     1
290
     1
  0
XRECORD
  5
1219
102
{ACAD_REACTORS
330
1218
102
}
330
1218
100
AcDbXrecord
280
     1
290
     1
  0
XRECORD
  5
121B
102
{ACAD_REACTORS
330
121A
102
}
330
121A
100
AcDbXrecord
280
     1
290
     1
  0
XRECORD
  5
121D
102
{ACAD_REACTORS
330
121C
102
}
330
121C
100
AcDbXrecord
280
     1
290
     1
  0
XRECORD
  5
121F
102
{ACAD_REACTORS
330
121E
102
}
330
121E
100
AcDbXrecord
280
     1
290
     1
  0
XRECORD
  5
1221
102
{ACAD_REACTORS
330
1220
102
}
330
1220
100
AcDbXrecord
280
     1
290
     1
  0
XRECORD
  5
1223
102
{ACAD_REACTORS
330
1222
102
}
330
1222
100
AcDbXrecord
280
     1
290
     1
  0
XRECORD
  5
1225
102
{ACAD_REACTORS
330
1224
102
}
330
1224
100
AcDbXrecord
280
     1
290
     1
  0
XRECORD
  5
1227
102
{ACAD_REACTORS
330
1226
102
}
330
1226
100
AcDbXrecord
280
     1
290
     1
  0
XRECORD
  5
1229
102
{ACAD_REACTORS
330
1228
102
}
330
1228
100
AcDbXrecord
280
     1
290
     1
  0
XRECORD
  5
122B
102
{ACAD_REACTORS
330
122A
102
}
330
122A
100
AcDbXrecord
280
     1
290
     1
  0
XRECORD
  5
122D
102
{ACAD_REACTORS
330
122C
102
}
330
122C
100
AcDbXrecord
280
     1
290
     1
  0
XRECORD
  5
122F
102
{ACAD_REACTORS
330
122E
102
}
330
122E
100
AcDbXrecord
280
     1
290
     1
  0
XRECORD
  5
1231
102
{ACAD_REACTORS
330
1230
102
}
330
1230
100
AcDbXrecord
280
     1
290
     1
  0
XRECORD
  5
1233
102
{ACAD_REACTORS
330
1232
102
}
330
1232
100
AcDbXrecord
280
     1
290
     1
  0
XRECORD
  5
1235
102
{ACAD_REACTORS
330
1234
102
}
330
1234
100
AcDbXrecord
280
     1
290
     1
  0
XRECORD
  5
1237
102
{ACAD_REACTORS
330
1236
102
}
330
1236
100
AcDbXrecord
280
     1
290
     1
  0
XRECORD
  5
1239
102
{ACAD_REACTORS
330
1238
102
}
330
1238
100
AcDbXrecord
280
     1
290
     1
  0
XRECORD
  5
123B
102
{ACAD_REACTORS
330
123A
102
}
330
123A
100
AcDbXrecord
280
     1
290
     1
  0
XRECORD
  5
123D
102
{ACAD_REACTORS
330
123C
102
}
330
123C
100
AcDbXrecord
280
     1
290
     1
  0
XRECORD
  5
123F
102
{ACAD_REACTORS
330
123E
102
}
330
123E
100
AcDbXrecord
280
     1
290
     1
  0
XRECORD
  5
1241
102
{ACAD_REACTORS
330
1240
102
}
330
1240
100
AcDbXrecord
280
     1
290
     1
  0
XRECORD
  5
1243
102
{ACAD_REACTORS
330
1242
102
}
330
1242
100
AcDbXrecord
280
     1
290
     1
  0
XRECORD
  5
1245
102
{ACAD_REACTORS
330
1244
102
}
330
1244
100
AcDbXrecord
280
     1
290
     1
  0
XRECORD
  5
1247
102
{ACAD_REACTORS
330
1246
102
}
330
1246
100
AcDbXrecord
280
     1
290
     1
  0
XRECORD
  5
1249
102
{ACAD_REACTORS
330
1248
102
}
330
1248
100
AcDbXrecord
280
     1
290
     1
  0
XRECORD
  5
124B
102
{ACAD_REACTORS
330
124A
102
}
330
124A
100
AcDbXrecord
280
     1
290
     1
  0
XRECORD
  5
124D
102
{ACAD_REACTORS
330
124C
102
}
330
124C
100
AcDbXrecord
280
     1
290
     1
  0
XRECORD
  5
124F
102
{ACAD_REACTORS
330
124E
102
}
330
124E
100
AcDbXrecord
280
     1
290
     1
  0
XRECORD
  5
1251
102
{ACAD_REACTORS
330
1250
102
}
330
1250
100
AcDbXrecord
280
     1
290
     1
  0
XRECORD
  5
1253
102
{ACAD_REACTORS
330
1252
102
}
330
1252
100
AcDbXrecord
280
     1
290
     1
  0
XRECORD
  5
1255
102
{ACAD_REACTORS
330
1254
102
}
330
1254
100
AcDbXrecord
280
     1
290
     1
  0
XRECORD
  5
1257
102
{ACAD_REACTORS
330
1256
102
}
330
1256
100
AcDbXrecord
280
     1
290
     1
  0
XRECORD
  5
1259
102
{ACAD_REACTORS
330
1258
102
}
330
1258
100
AcDbXrecord
280
     1
290
     1
  0
XRECORD
  5
125B
102
{ACAD_REACTORS
330
125A
102
}
330
125A
100
AcDbXrecord
280
     1
290
     1
  0
XRECORD
  5
125D
102
{ACAD_REACTORS
330
125C
102
}
330
125C
100
AcDbXrecord
280
     1
290
     1
  0
XRECORD
  5
125F
102
{ACAD_REACTORS
330
125E
102
}
330
125E
100
AcDbXrecord
280
     1
290
     1
  0
XRECORD
  5
1261
102
{ACAD_REACTORS
330
1260
102
}
330
1260
100
AcDbXrecord
280
     1
290
     1
  0
XRECORD
  5
1263
102
{ACAD_REACTORS
330
1262
102
}
330
1262
100
AcDbXrecord
280
     1
290
     1
  0
XRECORD
  5
1265
102
{ACAD_REACTORS
330
1264
102
}
330
1264
100
AcDbXrecord
280
     1
290
     1
  0
XRECORD
  5
1267
102
{ACAD_REACTORS
330
1266
102
}
330
1266
100
AcDbXrecord
280
     1
290
     1
  0
XRECORD
  5
1269
102
{ACAD_REACTORS
330
1268
102
}
330
1268
100
AcDbXrecord
280
     1
290
     1
  0
XRECORD
  5
126B
102
{ACAD_REACTORS
330
126A
102
}
330
126A
100
AcDbXrecord
280
     1
290
     1
  0
XRECORD
  5
126D
102
{ACAD_REACTORS
330
126C
102
}
330
126C
100
AcDbXrecord
280
     1
290
     1
  0
XRECORD
  5
126F
102
{ACAD_REACTORS
330
126E
102
}
330
126E
100
AcDbXrecord
280
     1
290
     1
  0
XRECORD
  5
1271
102
{ACAD_REACTORS
330
1270
102
}
330
1270
100
AcDbXrecord
280
     1
290
     1
  0
XRECORD
  5
1273
102
{ACAD_REACTORS
330
1272
102
}
330
1272
100
AcDbXrecord
280
     1
290
     1
  0
XRECORD
  5
1275
102
{ACAD_REACTORS
330
1274
102
}
330
1274
100
AcDbXrecord
280
     1
290
     1
  0
XRECORD
  5
1277
102
{ACAD_REACTORS
330
1276
102
}
330
1276
100
AcDbXrecord
280
     1
290
     1
  0
XRECORD
  5
1279
102
{ACAD_REACTORS
330
1278
102
}
330
1278
100
AcDbXrecord
280
     1
290
     1
  0
XRECORD
  5
127B
102
{ACAD_REACTORS
330
127A
102
}
330
127A
100
AcDbXrecord
280
     1
290
     1
  0
XRECORD
  5
127D
102
{ACAD_REACTORS
330
127C
102
}
330
127C
100
AcDbXrecord
280
     1
290
     1
  0
XRECORD
  5
127F
102
{ACAD_REACTORS
330
127E
102
}
330
127E
100
AcDbXrecord
280
     1
290
     1
  0
XRECORD
  5
1281
102
{ACAD_REACTORS
330
1280
102
}
330
1280
100
AcDbXrecord
280
     1
290
     1
  0
XRECORD
  5
1283
102
{ACAD_REACTORS
330
1282
102
}
330
1282
100
AcDbXrecord
280
     1
290
     1
  0
XRECORD
  5
1285
102
{ACAD_REACTORS
330
1284
102
}
330
1284
100
AcDbXrecord
280
     1
290
     1
  0
XRECORD
  5
1287
102
{ACAD_REACTORS
330
1286
102
}
330
1286
100
AcDbXrecord
280
     1
290
     1
  0
XRECORD
  5
1289
102
{ACAD_REACTORS
330
1288
102
}
330
1288
100
AcDbXrecord
280
     1
290
     1
  0
XRECORD
  5
128B
102
{ACAD_REACTORS
330
128A
102
}
330
128A
100
AcDbXrecord
280
     1
290
     1
  0
XRECORD
  5
128D
102
{ACAD_REACTORS
330
128C
102
}
330
128C
100
AcDbXrecord
280
     1
290
     1
  0
XRECORD
  5
128F
102
{ACAD_REACTORS
330
128E
102
}
330
128E
100
AcDbXrecord
280
     1
290
     1
  0
XRECORD
  5
1291
102
{ACAD_REACTORS
330
1290
102
}
330
1290
100
AcDbXrecord
280
     1
290
     1
  0
XRECORD
  5
1293
102
{ACAD_REACTORS
330
1292
102
}
330
1292
100
AcDbXrecord
280
     1
290
     1
  0
XRECORD
  5
1295
102
{ACAD_REACTORS
330
1294
102
}
330
1294
100
AcDbXrecord
280
     1
290
     1
  0
XRECORD
  5
1297
102
{ACAD_REACTORS
330
1296
102
}
330
1296
100
AcDbXrecord
280
     1
290
     1
  0
XRECORD
  5
1299
102
{ACAD_REACTORS
330
1298
102
}
330
1298
100
AcDbXrecord
280
     1
290
     1
  0
XRECORD
  5
129B
102
{ACAD_REACTORS
330
129A
102
}
330
129A
100
AcDbXrecord
280
     1
290
     1
  0
XRECORD
  5
129D
102
{ACAD_REACTORS
330
129C
102
}
330
129C
100
AcDbXrecord
280
     1
290
     1
  0
XRECORD
  5
129F
102
{ACAD_REACTORS
330
129E
102
}
330
129E
100
AcDbXrecord
280
     1
290
     1
  0
XRECORD
  5
12A1
102
{ACAD_REACTORS
330
12A0
102
}
330
12A0
100
AcDbXrecord
280
     1
290
     1
  0
XRECORD
  5
12A3
102
{ACAD_REACTORS
330
12A2
102
}
330
12A2
100
AcDbXrecord
280
     1
290
     1
  0
XRECORD
  5
12A5
102
{ACAD_REACTORS
330
12A4
102
}
330
12A4
100
AcDbXrecord
280
     1
290
     1
  0
XRECORD
  5
12A7
102
{ACAD_REACTORS
330
12A6
102
}
330
12A6
100
AcDbXrecord
280
     1
290
     1
  0
SORTENTSTABLE
  5
B9D
102
{ACAD_REACTORS
330
B9C
102
}
330
B9C
100
AcDbSortentsTable
330
22
331
CE5
  5
CDD
331
C4B
  5
CE1
331
C50
  5
CE9
331
CE8
  5
CD9
331
C4E
  5
CE7
331
CE0
  5
CEB
331
821
  5
821
331
CDE
  5
CDA
331
CEB
  5
C3C
331
C49
  5
CDE
331
CE6
  5
C13
331
C4C
  5
CE5
331
C51
  5
CEA
331
CE9
  5
C4D
331
C4F
  5
CE8
331
CE1
  5
C4A
331
CDF
  5
C49
331
C4A
  5
CDF
331
CE7
  5
CD5
331
C4D
  5
CE6
331
81E
  5
81E
331
CEA
  5
C4F
  0
SORTENTSTABLE
  5
ED4
102
{ACAD_REACTORS
330
ED3
102
}
330
ED3
100
AcDbSortentsTable
330
ED2
  0
LAYOUT
  5
21
102
{ACAD_XDICTIONARY
360
1511
102
}
102
{ACAD_REACTORS
330
19
102
}
330
19
100
AcDbPlotSettings
  1

  2
\\lkfpcw\CW001
  4

  6

 40
0.0
 41
0.0
 42
0.0
 43
0.0
 44
0.0
 45
0.0
 46
0.0
 47
0.0
 48
0.0
 49
0.0
140
0.0
141
0.0
142
1.0
143
1.0
 70
   688
 72
     0
 73
     0
 74
     5
  7
monochrome.ctb
 75
    16
147
1.0
148
0.0
149
0.0
100
AcDbLayout
  1
Layout1
 70
     1
 71
     1
 10
0.0
 20
0.0
 11
12.0
 21
9.0
 12
0.0
 22
0.0
 32
0.0
 14
1.000000000000000E+20
 24
1.000000000000000E+20
 34
1.000000000000000E+20
 15
-1.000000000000000E+20
 25
-1.000000000000000E+20
 35
-1.000000000000000E+20
146
0.0
 13
0.0
 23
0.0
 33
0.0
 16
1.0
 26
0.0
 36
0.0
 17
0.0
 27
1.0
 37
0.0
 76
     0
330
1E
  0
LAYOUT
  5
25
102
{ACAD_XDICTIONARY
360
13B6
102
}
102
{ACAD_REACTORS
330
19
102
}
330
19
100
AcDbPlotSettings
  1

  2
CW010 (temporary)325.pc3
  4
User261
  6

 40
4.995333194732666
 41
16.97568893432617
 42
4.99530029296875
 43
16.97564697265625
 44
609.5576782226562
 45
825.4153442382811
 46
0.0
 47
0.0
 48
42.08747179642716
 49
1.794566895550843
140
73.220354504971
141
22.46714367474448
142
1.0
143
1.0
 70
 11936
 72
     0
 73
     1
 74
     4
  7
monochrome.ctb
 75
     0
147
0.6206806341508335
148
-1069.02178362925
149
-45.58199914699143
100
AcDbLayout
  1
Model
 70
     1
 71
     0
 10
0.0
 20
0.0
 11
12.0
 21
9.0
 12
0.0
 22
0.0
 32
0.0
 14
0.0
 24
0.0
 34
0.0
 15
0.0
 25
0.0
 35
0.0
146
0.0
 13
0.0
 23
0.0
 33
0.0
 16
1.0
 26
0.0
 36
0.0
 17
0.0
 27
1.0
 37
0.0
 76
     0
330
22
331
D44
1001
ACAD_PSEXT
1000
CW010 (temporary)325.pc3
1000
HP Designjet 500 24 by HP
1000
\\nsfpcw-2
1000
HP Designjet 500
1070
     0
  0
MATERIAL
  5
D4E
102
{ACAD_XDICTIONARY
360
D4F
102
}
102
{ACAD_REACTORS
330
1A
102
}
330
1A
100
AcDbMaterial
  1
ByBlock
 72
     0
 43
0.0208333333333333
 43
0.0
 43
0.0
 43
0.0
 43
0.0
 43
0.0208333333333333
 43
0.0
 43
0.0
 43
0.0
 43
0.0
 43
1.0
 43
0.0
 43
0.0
 43
0.0
 43
0.0
 43
1.0
 77
     0
 47
0.0208333333333333
 47
0.0
 47
0.0
 47
0.0
 47
0.0
 47
0.0208333333333333
 47
0.0
 47
0.0
 47
0.0
 47
0.0
 47
1.0
 47
0.0
 47
0.0
 47
0.0
 47
0.0
 47
1.0
171
     0
 49
0.0208333333333333
 49
0.0
 49
0.0
 49
0.0
 49
0.0
 49
0.0208333333333333
 49
0.0
 49
0.0
 49
0.0
 49
0.0
 49
1.0
 49
0.0
 49
0.0
 49
0.0
 49
0.0
 49
1.0
175
     0
142
0.0208333333333333
142
0.0
142
0.0
142
0.0
142
0.0
142
0.0208333333333333
142
0.0
142
0.0
142
0.0
142
0.0
142
1.0
142
0.0
142
0.0
142
0.0
142
0.0
142
1.0
179
     0
144
0.0208333333333333
144
0.0
144
0.0
144
0.0
144
0.0
144
0.0208333333333333
144
0.0
144
0.0
144
0.0
144
0.0
144
1.0
144
0.0
144
0.0
144
0.0
144
0.0
144
1.0
147
0.0208333333333333
147
0.0
147
0.0
147
0.0
147
0.0
147
0.0208333333333333
147
0.0
147
0.0
147
0.0
147
0.0
147
1.0
147
0.0
147
0.0
147
0.0
147
0.0
147
1.0
  0
MATERIAL
  5
D46
102
{ACAD_XDICTIONARY
360
D47
102
}
102
{ACAD_REACTORS
330
1A
102
}
330
1A
100
AcDbMaterial
  1
ByLayer
 72
     0
 43
0.0208333333333333
 43
0.0
 43
0.0
 43
0.0
 43
0.0
 43
0.0208333333333333
 43
0.0
 43
0.0
 43
0.0
 43
0.0
 43
1.0
 43
0.0
 43
0.0
 43
0.0
 43
0.0
 43
1.0
 77
     0
 47
0.0208333333333333
 47
0.0
 47
0.0
 47
0.0
 47
0.0
 47
0.0208333333333333
 47
0.0
 47
0.0
 47
0.0
 47
0.0
 47
1.0
 47
0.0
 47
0.0
 47
0.0
 47
0.0
 47
1.0
171
     0
 49
0.0208333333333333
 49
0.0
 49
0.0
 49
0.0
 49
0.0
 49
0.0208333333333333
 49
0.0
 49
0.0
 49
0.0
 49
0.0
 49
1.0
 49
0.0
 49
0.0
 49
0.0
 49
0.0
 49
1.0
175
     0
142
0.0208333333333333
142
0.0
142
0.0
142
0.0
142
0.0
142
0.0208333333333333
142
0.0
142
0.0
142
0.0
142
0.0
142
1.0
142
0.0
142
0.0
142
0.0
142
0.0
142
1.0
179
     0
144
0.0208333333333333
144
0.0
144
0.0
144
0.0
144
0.0
144
0.0208333333333333
144
0.0
144
0.0
144
0.0
144
0.0
144
1.0
144
0.0
144
0.0
144
0.0
144
0.0
144
1.0
147
0.0208333333333333
147
0.0
147
0.0
147
0.0
147
0.0
147
0.0208333333333333
147
0.0
147
0.0
147
0.0
147
0.0
147
1.0
147
0.0
147
0.0
147
0.0
147
0.0
147
1.0
  0
MATERIAL
  5
D56
102
{ACAD_XDICTIONARY
360
D57
102
}
102
{ACAD_REACTORS
330
1A
102
}
330
1A
100
AcDbMaterial
  1
Global
 72
     0
 43
0.0208333333333333
 43
0.0
 43
0.0
 43
0.0
 43
0.0
 43
0.0208333333333333
 43
0.0
 43
0.0
 43
0.0
 43
0.0
 43
1.0
 43
0.0
 43
0.0
 43
0.0
 43
0.0
 43
1.0
 77
     0
 47
0.0208333333333333
 47
0.0
 47
0.0
 47
0.0
 47
0.0
 47
0.0208333333333333
 47
0.0
 47
0.0
 47
0.0
 47
0.0
 47
1.0
 47
0.0
 47
0.0
 47
0.0
 47
0.0
 47
1.0
171
     0
 49
0.0208333333333333
 49
0.0
 49
0.0
 49
0.0
 49
0.0
 49
0.0208333333333333
 49
0.0
 49
0.0
 49
0.0
 49
0.0
 49
1.0
 49
0.0
 49
0.0
 49
0.0
 49
0.0
 49
1.0
175
     0
142
0.0208333333333333
142
0.0
142
0.0
142
0.0
142
0.0
142
0.0208333333333333
142
0.0
142
0.0
142
0.0
142
0.0
142
1.0
142
0.0
142
0.0
142
0.0
142
0.0
142
1.0
179
     0
144
0.0208333333333333
144
0.0
144
0.0
144
0.0
144
0.0
144
0.0208333333333333
144
0.0
144
0.0
144
0.0
144
0.0
144
1.0
144
0.0
144
0.0
144
0.0
144
0.0
144
1.0
147
0.0208333333333333
147
0.0
147
0.0
147
0.0
147
0.0
147
0.0208333333333333
147
0.0
147
0.0
147
0.0
147
0.0
147
1.0
147
0.0
147
0.0
147
0.0
147
0.0
147
1.0
  0
MLEADERSTYLE
  5
D92
102
{ACAD_REACTORS
330
D91
102
}
330
D91
100
AcDbMLeaderStyle
170
     2
171
     1
172
     0
 90
        2
 40
0.0
 41
0.0
173
     1
 91
-1056964608
340
13
 92
       -2
290
     1
 42
0.09
291
     1
 43
0.36
  3
Standard
 44
0.18
300

342
11
174
     1
178
     6
175
     1
176
     0
 93
-1056964608
 45
0.18
292
     0
297
     0
 46
0.18
 94
-1056964608
 47
1.0
 49
1.0
140
1.0
293
     1
141
0.0
294
     1
177
     0
142
1.0
295
     0
296
     0
143
0.125
1001
ACAD_MLEADERVER
1070
     2
  0
MLINESTYLE
  5
17
102
{ACAD_REACTORS
330
16
102
}
330
16
100
AcDbMlineStyle
  2
STANDARD
 70
     0
  3

 62
   256
 51
90.0
 52
90.0
 71
     2
 49
0.5
 62
   256
  6
BYLAYER
 49
-0.5
 62
   256
  6
BYLAYER
  0
ACDBPLACEHOLDER
  5
F
102
{ACAD_REACTORS
330
E
102
}
330
E
  0
SCALE
  5
D70
102
{ACAD_REACTORS
330
D6F
102
}
330
D6F
100
AcDbScale
 70
     0
300
1:1
140
1.0
141
1.0
290
     1
  0
SCALE
  5
D71
102
{ACAD_REACTORS
330
D6F
102
}
330
D6F
100
AcDbScale
 70
     0
300
1:2
140
1.0
141
2.0
290
     0
  0
SCALE
  5
D72
102
{ACAD_REACTORS
330
D6F
102
}
330
D6F
100
AcDbScale
 70
     0
300
1:4
140
1.0
141
4.0
290
     0
  0
SCALE
  5
D73
102
{ACAD_REACTORS
330
D6F
102
}
330
D6F
100
AcDbScale
 70
     0
300
1:5
140
1.0
141
5.0
290
     0
  0
SCALE
  5
D74
102
{ACAD_REACTORS
330
D6F
102
}
330
D6F
100
AcDbScale
 70
     0
300
1:8
140
1.0
141
8.0
290
     0
  0
SCALE
  5
D75
102
{ACAD_REACTORS
330
D6F
102
}
330
D6F
100
AcDbScale
 70
     0
300
1:10
140
1.0
141
10.0
290
     0
  0
SCALE
  5
D76
102
{ACAD_REACTORS
330
D6F
102
}
330
D6F
100
AcDbScale
 70
     0
300
1:16
140
1.0
141
16.0
290
     0
  0
SCALE
  5
D77
102
{ACAD_REACTORS
330
D6F
102
}
330
D6F
100
AcDbScale
 70
     0
300
1:20
140
1.0
141
20.0
290
     0
  0
SCALE
  5
D78
102
{ACAD_REACTORS
330
D6F
102
}
330
D6F
100
AcDbScale
 70
     0
300
1:30
140
1.0
141
30.0
290
     0
  0
SCALE
  5
D79
102
{ACAD_REACTORS
330
D6F
102
}
330
D6F
100
AcDbScale
 70
     0
300
1:40
140
1.0
141
40.0
290
     0
  0
SCALE
  5
D7A
102
{ACAD_REACTORS
330
D6F
102
}
330
D6F
100
AcDbScale
 70
     0
300
1:50
140
1.0
141
50.0
290
     0
  0
SCALE
  5
D7B
102
{ACAD_REACTORS
330
D6F
102
}
330
D6F
100
AcDbScale
 70
     0
300
1:100
140
1.0
141
100.0
290
     0
  0
SCALE
  5
D7C
102
{ACAD_REACTORS
330
D6F
102
}
330
D6F
100
AcDbScale
 70
     0
300
2:1
140
2.0
141
1.0
290
     0
  0
SCALE
  5
D7D
102
{ACAD_REACTORS
330
D6F
102
}
330
D6F
100
AcDbScale
 70
     0
300
4:1
140
4.0
141
1.0
290
     0
  0
SCALE
  5
D7E
102
{ACAD_REACTORS
330
D6F
102
}
330
D6F
100
AcDbScale
 70
     0
300
8:1
140
8.0
141
1.0
290
     0
  0
SCALE
  5
D7F
102
{ACAD_REACTORS
330
D6F
102
}
330
D6F
100
AcDbScale
 70
     0
300
10:1
140
10.0
141
1.0
290
     0
  0
SCALE
  5
D80
102
{ACAD_REACTORS
330
D6F
102
}
330
D6F
100
AcDbScale
 70
     0
300
100:1
140
100.0
141
1.0
290
     0
  0
SCALE
  5
D81
102
{ACAD_REACTORS
330
D6F
102
}
330
D6F
100
AcDbScale
 70
     0
300
1/128" = 1'-0"
140
0.0078125
141
12.0
290
     0
  0
SCALE
  5
D82
102
{ACAD_REACTORS
330
D6F
102
}
330
D6F
100
AcDbScale
 70
     0
300
1/64" = 1'-0"
140
0.015625
141
12.0
290
     0
  0
SCALE
  5
D83
102
{ACAD_REACTORS
330
D6F
102
}
330
D6F
100
AcDbScale
 70
     0
300
1/32" = 1'-0"
140
0.03125
141
12.0
290
     0
  0
SCALE
  5
D84
102
{ACAD_REACTORS
330
D6F
102
}
330
D6F
100
AcDbScale
 70
     0
300
1/16" = 1'-0"
140
0.0625
141
12.0
290
     0
  0
SCALE
  5
D85
102
{ACAD_REACTORS
330
D6F
102
}
330
D6F
100
AcDbScale
 70
     0
300
3/32" = 1'-0"
140
0.09375
141
12.0
290
     0
  0
SCALE
  5
D86
102
{ACAD_REACTORS
330
D6F
102
}
330
D6F
100
AcDbScale
 70
     0
300
1/8" = 1'-0"
140
0.125
141
12.0
290
     0
  0
SCALE
  5
D87
102
{ACAD_REACTORS
330
D6F
102
}
330
D6F
100
AcDbScale
 70
     0
300
3/16" = 1'-0"
140
0.1875
141
12.0
290
     0
  0
SCALE
  5
D88
102
{ACAD_REACTORS
330
D6F
102
}
330
D6F
100
AcDbScale
 70
     0
300
1/4" = 1'-0"
140
0.25
141
12.0
290
     0
  0
SCALE
  5
D89
102
{ACAD_REACTORS
330
D6F
102
}
330
D6F
100
AcDbScale
 70
     0
300
3/8" = 1'-0"
140
0.375
141
12.0
290
     0
  0
SCALE
  5
D8A
102
{ACAD_REACTORS
330
D6F
102
}
330
D6F
100
AcDbScale
 70
     0
300
1/2" = 1'-0"
140
0.5
141
12.0
290
     0
  0
SCALE
  5
D8B
102
{ACAD_REACTORS
330
D6F
102
}
330
D6F
100
AcDbScale
 70
     0
300
3/4" = 1'-0"
140
0.75
141
12.0
290
     0
  0
SCALE
  5
D8C
102
{ACAD_REACTORS
330
D6F
102
}
330
D6F
100
AcDbScale
 70
     0
300
1" = 1'-0"
140
1.0
141
12.0
290
     0
  0
SCALE
  5
D8D
102
{ACAD_REACTORS
330
D6F
102
}
330
D6F
100
AcDbScale
 70
     0
300
1-1/2" = 1'-0"
140
1.5
141
12.0
290
     0
  0
SCALE
  5
D8E
102
{ACAD_REACTORS
330
D6F
102
}
330
D6F
100
AcDbScale
 70
     0
300
3" = 1'-0"
140
3.0
141
12.0
290
     0
  0
SCALE
  5
D8F
102
{ACAD_REACTORS
330
D6F
102
}
330
D6F
100
AcDbScale
 70
     0
300
6" = 1'-0"
140
6.0
141
12.0
290
     0
  0
SCALE
  5
D90
102
{ACAD_REACTORS
330
D6F
102
}
330
D6F
100
AcDbScale
 70
     0
300
1'-0" = 1'-0"
140
12.0
141
12.0
290
     0
  0
TABLESTYLE
  5
1D
102
{ACAD_XDICTIONARY
360
12A8
102
}
102
{ACAD_REACTORS
330
1C
102
}
330
1C
100
AcDbTableStyle
  3
Standard
 70
     0
 71
     0
 40
0.06
 41
0.06
280
     0
281
     0
  7
STANDARD
140
0.18
170
     2
 62
     0
 63
     7
283
     0
274
    -2
284
     1
 64
     0
275
    -2
285
     1
 65
     0
276
    -2
286
     1
 66
     0
277
    -2
287
     1
 67
     0
278
    -2
288
     1
 68
     0
279
    -2
289
     1
 69
     0
  7
STANDARD
140
0.25
170
     5
 62
     0
 63
     7
283
     0
274
    -2
284
     1
 64
     0
275
    -2
285
     1
 65
     0
276
    -2
286
     1
 66
     0
277
    -2
287
     1
 67
     0
278
    -2
288
     1
 68
     0
279
    -2
289
     1
 69
     0
  7
STANDARD
140
0.18
170
     5
 62
     0
 63
     7
283
     0
274
    -2
284
     1
 64
     0
275
    -2
285
     1
 65
     0
276
    -2
286
     1
 66
     0
277
    -2
287
     1
 67
     0
278
    -2
288
     1
 68
     0
279
    -2
289
     1
 69
     0
  0
VISUALSTYLE
  5
D64
102
{ACAD_XDICTIONARY
360
1521
102
}
102
{ACAD_REACTORS
330
D5E
102
}
330
D5E
100
AcDbVisualStyle
  2
2dWireframe
 70
     4
 71
     0
 72
     2
 73
     0
 90
        0
 40
-0.6
 41
-30.0
 62
     5
 63
     7
 74
     1
 91
        4
 64
     7
 65
   257
 75
     1
175
     1
 42
1.0
 92
        0
 66
   257
 43
1.0
 76
     1
 77
     6
 78
     2
 67
     7
 79
     5
170
     0
171
     0
290
     0
174
     0
 93
        1
 44
0.0
173
     0
291
     0
 45
0.0
1001
ACAD
1000
AcDbSavedByObjectVersion
1070
     0
  0
VISUALSTYLE
  5
D66
102
{ACAD_XDICTIONARY
360
1525
102
}
102
{ACAD_REACTORS
330
D5E
102
}
330
D5E
100
AcDbVisualStyle
  2
3D Hidden
 70
     6
 71
     1
 72
     2
 73
     2
 90
        0
 40
-0.6
 41
-30.0
 62
     5
 63
     7
 74
     2
 91
        2
 64
     7
 65
   257
 75
     2
175
     1
 42
40.0
 92
        0
 66
   257
 43
1.0
 76
     1
 77
     6
 78
     2
 67
     7
 79
     3
170
     0
171
     0
290
     0
174
     0
 93
        1
 44
0.0
173
     0
291
     0
 45
0.0
1001
ACAD
1000
AcDbSavedByObjectVersion
1070
     0
  0
VISUALSTYLE
  5
D65
102
{ACAD_XDICTIONARY
360
1523
102
}
102
{ACAD_REACTORS
330
D5E
102
}
330
D5E
100
AcDbVisualStyle
  2
3dWireframe
 70
     5
 71
     0
 72
     2
 73
     0
 90
        0
 40
-0.6
 41
-30.0
 62
     5
 63
     7
 74
     1
 91
        4
 64
     7
 65
   257
 75
     1
175
     1
 42
1.0
 92
        0
 66
   257
 43
1.0
 76
     1
 77
     6
 78
     2
 67
     7
 79
     5
170
     0
171
     0
290
     0
174
     0
 93
        1
 44
0.0
173
     0
291
     0
 45
0.0
1001
ACAD
1000
AcDbSavedByObjectVersion
1070
     0
  0
VISUALSTYLE
  5
D63
102
{ACAD_XDICTIONARY
360
151F
102
}
102
{ACAD_REACTORS
330
D5E
102
}
330
D5E
100
AcDbVisualStyle
  2
Basic
 70
     7
 71
     1
 72
     0
 73
     1
 90
        0
 40
-0.6
 41
-30.0
 62
     5
 63
     7
 74
     0
 91
        4
 64
     7
 65
   257
 75
     1
175
     1
 42
1.0
 92
        8
 66
     7
 43
1.0
 76
     1
 77
     6
 78
     2
 67
     7
 79
     5
170
     0
171
     0
290
     0
174
     0
 93
        1
 44
0.0
173
     0
291
     1
 45
0.0
1001
ACAD
1000
AcDbSavedByObjectVersion
1070
     0
  0
VISUALSTYLE
  5
D6A
102
{ACAD_XDICTIONARY
360
152D
102
}
102
{ACAD_REACTORS
330
D5E
102
}
330
D5E
100
AcDbVisualStyle
  2
Brighten
 70
    12
 71
     2
 72
     2
 73
     0
 90
        0
 40
-0.6
 41
-30.0
 62
     5
 63
     7
 74
     1
 91
        4
 64
     7
 65
   257
 75
     1
175
     1
 42
1.0
 92
        8
 66
     7
 43
1.0
 76
     1
 77
     6
 78
     2
 67
     7
 79
     5
170
     0
171
     0
290
     0
174
     0
 93
        1
 44
50.0
173
     0
291
     1
 45
0.0
1001
ACAD
1000
AcDbSavedByObjectVersion
1070
     0
  0
VISUALSTYLE
  5
D6E
102
{ACAD_XDICTIONARY
360
1535
102
}
102
{ACAD_REACTORS
330
D5E
102
}
330
D5E
100
AcDbVisualStyle
  2
ColorChange
 70
    16
 71
     2
 72
     2
 73
     3
 90
        0
 40
-0.6
 41
-30.0
 62
     5
 63
     8
 74
     1
 91
        4
 64
     7
 65
   257
 75
     1
175
     1
 42
1.0
 92
        8
 66
     8
 43
1.0
 76
     1
 77
     6
 78
     2
 67
     7
 79
     5
170
     0
171
     0
290
     0
174
     0
 93
        1
 44
0.0
173
     0
291
     1
 45
0.0
1001
ACAD
1000
AcDbSavedByObjectVersion
1070
     0
  0
VISUALSTYLE
  5
D67
102
{ACAD_XDICTIONARY
360
1527
102
}
102
{ACAD_REACTORS
330
D5E
102
}
330
D5E
100
AcDbVisualStyle
  2
Conceptual
 70
     9
 71
     3
 72
     2
 73
     0
 90
        0
 40
-0.6
 41
-30.0
 62
     5
 63
     7
 74
     2
 91
        2
 64
     7
 65
   257
 75
     1
175
     1
 42
40.0
 92
        8
 66
     7
 43
1.0
 76
     1
 77
     6
 78
     2
 67
     7
 79
     3
170
     0
171
     0
290
     0
174
     0
 93
        1
 44
0.0
173
     0
291
     0
 45
0.0
1001
ACAD
1000
AcDbSavedByObjectVersion
1070
     0
  0
VISUALSTYLE
  5
D69
102
{ACAD_XDICTIONARY
360
152B
102
}
102
{ACAD_REACTORS
330
D5E
102
}
330
D5E
100
AcDbVisualStyle
  2
Dim
 70
    11
 71
     2
 72
     2
 73
     0
 90
        0
 40
-0.6
 41
-30.0
 62
     5
 63
     7
 74
     1
 91
        4
 64
     7
 65
   257
 75
     1
175
     1
 42
1.0
 92
        8
 66
     7
 43
1.0
 76
     1
 77
     6
 78
     2
 67
     7
 79
     5
170
     0
171
     0
290
     0
174
     0
 93
        1
 44
-50.0
173
     0
291
     1
 45
0.0
1001
ACAD
1000
AcDbSavedByObjectVersion
1070
     0
  0
VISUALSTYLE
  5
136F
102
{ACAD_XDICTIONARY
360
153B
102
}
102
{ACAD_REACTORS
330
D5E
102
}
330
D5E
100
AcDbVisualStyle
  2
EdgeColorOff
 70
    22
 71
     2
 72
     2
 73
     0
 90
        0
 40
-0.6
 41
-30.0
 62
     5
 63
     7
 74
     1
 91
        4
 64
     7
 65
   257
 75
     1
175
     1
 42
1.0
 92
        8
 66
     7
 43
1.0
 76
     1
 77
     6
 78
     2
 67
     7
 79
     5
170
     0
171
     0
290
     0
174
     0
 93
        1
 44
0.0
173
     0
291
     1
 45
0.0
1001
ACAD
1000
AcDbSavedByObjectVersion
1070
     0
  0
VISUALSTYLE
  5
D6D
102
{ACAD_XDICTIONARY
360
1533
102
}
102
{ACAD_REACTORS
330
D5E
102
}
330
D5E
100
AcDbVisualStyle
  2
Facepattern
 70
    15
 71
     2
 72
     2
 73
     0
 90
        0
 40
-0.6
 41
-30.0
 62
     5
 63
     7
 74
     1
 91
        4
 64
     7
 65
   257
 75
     1
175
     1
 42
1.0
 92
        8
 66
     7
 43
1.0
 76
     1
 77
     6
 78
     2
 67
     7
 79
     5
170
     0
171
     0
290
     0
174
     0
 93
        1
 44
0.0
173
     0
291
     1
 45
0.0
1001
ACAD
1000
AcDbSavedByObjectVersion
1070
     0
  0
VISUALSTYLE
  5
D5F
102
{ACAD_XDICTIONARY
360
1517
102
}
102
{ACAD_REACTORS
330
D5E
102
}
330
D5E
100
AcDbVisualStyle
  2
Flat
 70
     0
 71
     2
 72
     1
 73
     1
 90
        2
 40
-0.6
 41
30.0
 62
     5
 63
     7
 74
     0
 91
        4
 64
     7
 65
   257
 75
     1
175
     1
 42
1.0
 92
        8
 66
     7
 43
1.0
 76
     1
 77
     6
 78
     2
 67
     7
 79
     5
170
     0
171
     0
290
     0
174
     0
 93
       13
 44
0.0
173
     0
291
     1
 45
0.0
1001
ACAD
1000
AcDbSavedByObjectVersion
1070
     0
  0
VISUALSTYLE
  5
D60
102
{ACAD_XDICTIONARY
360
1519
102
}
102
{ACAD_REACTORS
330
D5E
102
}
330
D5E
100
AcDbVisualStyle
  2
FlatWithEdges
 70
     1
 71
     2
 72
     1
 73
     1
 90
        2
 40
-0.6
 41
30.0
 62
     5
 63
     7
 74
     1
 91
        4
 64
     7
 65
   257
 75
     1
175
     1
 42
1.0
 92
        0
 66
   257
 43
1.0
 76
     1
 77
     6
 78
     2
 67
     7
 79
     5
170
     0
171
     0
290
     0
174
     0
 93
       13
 44
0.0
173
     0
291
     1
 45
0.0
1001
ACAD
1000
AcDbSavedByObjectVersion
1070
     0
  0
VISUALSTYLE
  5
D61
102
{ACAD_XDICTIONARY
360
151B
102
}
102
{ACAD_REACTORS
330
D5E
102
}
330
D5E
100
AcDbVisualStyle
  2
Gouraud
 70
     2
 71
     2
 72
     2
 73
     1
 90
        2
 40
-0.6
 41
30.0
 62
     5
 63
     7
 74
     0
 91
        4
 64
     7
 65
   257
 75
     1
175
     1
 42
1.0
 92
        0
 66
     7
 43
1.0
 76
     1
 77
     6
 78
     2
 67
     7
 79
     5
170
     0
171
     0
290
     0
174
     0
 93
       13
 44
0.0
173
     0
291
     1
 45
0.0
1001
ACAD
1000
AcDbSavedByObjectVersion
1070
     0
  0
VISUALSTYLE
  5
D62
102
{ACAD_XDICTIONARY
360
151D
102
}
102
{ACAD_REACTORS
330
D5E
102
}
330
D5E
100
AcDbVisualStyle
  2
GouraudWithEdges
 70
     3
 71
     2
 72
     2
 73
     1
 90
        2
 40
-0.6
 41
30.0
 62
     5
 63
     7
 74
     1
 91
        4
 64
     7
 65
   257
 75
     1
175
     1
 42
1.0
 92
        0
 66
   257
 43
1.0
 76
     1
 77
     6
 78
     2
 67
     7
 79
     5
170
     0
171
     0
290
     0
174
     0
 93
       13
 44
0.0
173
     0
291
     1
 45
0.0
1001
ACAD
1000
AcDbSavedByObjectVersion
1070
     0
  0
VISUALSTYLE
  5
137A
102
{ACAD_XDICTIONARY
360
153F
102
}
102
{ACAD_REACTORS
330
D5E
102
}
330
D5E
100
AcDbVisualStyle
  2
Hidden
 70
     6
 71
     1
 72
     2
 73
     2
 90
        0
 40
-0.6
 41
-30.0
 62
     5
 63
     7
 74
     2
 91
        2
 64
     7
 65
   257
 75
     2
175
     1
 42
40.0
 92
        0
 66
   257
 43
1.0
 76
     1
 77
     6
 78
     2
 67
     7
 79
     3
170
     0
171
     0
290
     0
174
     0
 93
        1
 44
0.0
173
     0
291
     0
 45
0.0
1001
ACAD
1000
AcDbSavedByObjectVersion
1070
     0
  0
VISUALSTYLE
  5
136D
102
{ACAD_XDICTIONARY
360
1537
102
}
102
{ACAD_REACTORS
330
D5E
102
}
330
D5E
100
AcDbVisualStyle
  2
JitterOff
 70
    20
 71
     2
 72
     2
 73
     0
 90
        0
 40
-0.6
 41
-30.0
 62
     5
 63
     7
 74
     1
 91
        4
 64
     7
 65
   257
 75
     1
175
     1
 42
1.0
 92
       10
 66
     7
 43
1.0
 76
     1
 77
     6
 78
     2
 67
     7
 79
     5
170
     0
171
     0
290
     0
174
     0
 93
        1
 44
0.0
173
     0
291
     1
 45
0.0
1001
ACAD
1000
AcDbSavedByObjectVersion
1070
     0
  0
VISUALSTYLE
  5
D6C
102
{ACAD_XDICTIONARY
360
1531
102
}
102
{ACAD_REACTORS
330
D5E
102
}
330
D5E
100
AcDbVisualStyle
  2
Linepattern
 70
    14
 71
     2
 72
     2
 73
     0
 90
        0
 40
-0.6
 41
-30.0
 62
     5
 63
     7
 74
     1
 91
        4
 64
     7
 65
   257
 75
     7
175
     7
 42
1.0
 92
        8
 66
     7
 43
1.0
 76
     1
 77
     6
 78
     2
 67
     7
 79
     5
170
     0
171
     0
290
     0
174
     0
 93
        1
 44
0.0
173
     0
291
     1
 45
0.0
1001
ACAD
1000
AcDbSavedByObjectVersion
1070
     0
  0
VISUALSTYLE
  5
136E
102
{ACAD_XDICTIONARY
360
1539
102
}
102
{ACAD_REACTORS
330
D5E
102
}
330
D5E
100
AcDbVisualStyle
  2
OverhangOff
 70
    21
 71
     2
 72
     2
 73
     0
 90
        0
 40
-0.6
 41
-30.0
 62
     5
 63
     7
 74
     1
 91
        4
 64
     7
 65
   257
 75
     1
175
     1
 42
1.0
 92
        9
 66
     7
 43
1.0
 76
     1
 77
     6
 78
     2
 67
     7
 79
     5
170
     0
171
     0
290
     0
174
     0
 93
        1
 44
0.0
173
     0
291
     1
 45
0.0
1001
ACAD
1000
AcDbSavedByObjectVersion
1070
     0
  0
VISUALSTYLE
  5
D68
102
{ACAD_XDICTIONARY
360
1529
102
}
102
{ACAD_REACTORS
330
D5E
102
}
330
D5E
100
AcDbVisualStyle
  2
Realistic
 70
     8
 71
     2
 72
     2
 73
     0
 90
        0
 40
-0.6
 41
-30.0
 62
     5
 63
     7
 74
     1
 91
        0
 64
     7
 65
   257
 75
     1
175
     1
 42
1.0
 92
        8
 66
     8
 43
1.0
 76
     1
 77
     6
 78
     2
 67
     7
 79
     5
170
     0
171
     0
290
     0
174
     0
 93
       13
 44
0.0
173
     0
291
     0
 45
0.0
1001
ACAD
1000
AcDbSavedByObjectVersion
1070
     0
  0
VISUALSTYLE
  5
137F
102
{ACAD_XDICTIONARY
360
1549
102
}
102
{ACAD_REACTORS
330
D5E
102
}
330
D5E
100
AcDbVisualStyle
  2
Shaded
 70
    27
 71
     2
 72
     2
 73
     1
 90
        2
 40
-0.6
 41
30.0
 62
     5
 63
     7
 74
     0
 91
        4
 64
     7
 65
   257
 75
     1
175
     1
 42
1.0
 92
        8
 66
   257
 43
1.0
 76
     1
 77
     6
 78
     2
 67
     8
 79
     3
170
     0
171
     0
290
     0
174
     0
 93
        5
 44
0.0
173
     0
291
     0
 45
0.0
1001
ACAD
1000
AcDbSavedByObjectVersion
1070
     0
  0
VISUALSTYLE
  5
137E
102
{ACAD_XDICTIONARY
360
1547
102
}
102
{ACAD_REACTORS
330
D5E
102
}
330
D5E
100
AcDbVisualStyle
  2
Shaded with edges
 70
    26
 71
     2
 72
     2
 73
     1
 90
        2
 40
-0.6
 41
30.0
 62
     5
 63
     7
 74
     1
 91
       10
 64
     7
 65
   257
 75
     2
175
     1
 42
1.0
 92
        8
 66
   257
 43
1.0
 76
     1
 77
     6
 78
     2
 67
     7
 79
     3
170
     0
171
     0
290
     0
174
     0
 93
        5
 44
0.0
173
     0
291
     0
 45
0.0
1001
ACAD
1000
AcDbSavedByObjectVersion
1070
     0
  0
VISUALSTYLE
  5
137B
102
{ACAD_XDICTIONARY
360
1541
102
}
102
{ACAD_REACTORS
330
D5E
102
}
330
D5E
100
AcDbVisualStyle
  2
Shades of Gray
 70
    23
 71
     2
 72
     2
 73
     3
 90
        0
 40
-0.6
 41
-30.0
 62
     5
 63
     7
 74
     2
 91
        2
 64
     7
 65
     7
 75
     1
175
     1
 42
40.0
 92
        8
 66
     7
 43
1.0
 76
     1
 77
     6
 78
     2
 67
     7
 79
     3
170
     0
171
     0
290
     0
174
     0
 93
        1
 44
0.0
173
     0
291
     0
 45
0.0
1001
ACAD
1000
AcDbSavedByObjectVersion
1070
     0
  0
VISUALSTYLE
  5
137C
102
{ACAD_XDICTIONARY
360
1543
102
}
102
{ACAD_REACTORS
330
D5E
102
}
330
D5E
100
AcDbVisualStyle
  2
Sketchy
 70
    24
 71
     1
 72
     2
 73
     2
 90
        0
 40
-0.6
 41
-30.0
 62
     5
 63
     7
 74
     2
 91
        2
 64
     7
 65
     7
 75
     1
175
     1
 42
40.0
 92
       11
 66
     7
 43
1.0
 76
     1
 77
     6
 78
     2
 67
     7
 79
     6
170
     0
171
     0
290
     0
174
     0
 93
        1
 44
0.0
173
     0
291
     0
 45
0.0
1001
ACAD
1000
AcDbSavedByObjectVersion
1070
     0
  0
VISUALSTYLE
  5
D6B
102
{ACAD_XDICTIONARY
360
152F
102
}
102
{ACAD_REACTORS
330
D5E
102
}
330
D5E
100
AcDbVisualStyle
  2
Thicken
 70
    13
 71
     2
 72
     2
 73
     0
 90
        0
 40
-0.6
 41
-30.0
 62
     5
 63
     7
 74
     1
 91
        4
 64
     7
 65
   257
 75
     1
175
     1
 42
1.0
 92
       12
 66
     7
 43
1.0
 76
     1
 77
     6
 78
     2
 67
     7
 79
     5
170
     0
171
     0
290
     0
174
     0
 93
        1
 44
0.0
173
     0
291
     1
 45
0.0
1001
ACAD
1000
AcDbSavedByObjectVersion
1070
     0
  0
VISUALSTYLE
  5
1379
102
{ACAD_XDICTIONARY
360
153D
102
}
102
{ACAD_REACTORS
330
D5E
102
}
330
D5E
100
AcDbVisualStyle
  2
Wireframe
 70
     5
 71
     0
 72
     2
 73
     0
 90
        0
 40
-0.6
 41
-30.0
 62
     5
 63
     7
 74
     1
 91
        4
 64
     7
 65
   257
 75
     1
175
     1
 42
1.0
 92
        0
 66
   257
 43
1.0
 76
     1
 77
     6
 78
     2
 67
     7
 79
     3
170
     0
171
     0
290
     0
174
     0
 93
        1
 44
0.0
173
     0
291
     0
 45
0.0
1001
ACAD
1000
AcDbSavedByObjectVersion
1070
     0
  0
VISUALSTYLE
  5
137D
102
{ACAD_XDICTIONARY
360
1545
102
}
102
{ACAD_REACTORS
330
D5E
102
}
330
D5E
100
AcDbVisualStyle
  2
X-Ray
 70
    25
 71
     2
 72
     2
 73
     1
 90
        1
 40
0.5
 41
-30.0
 62
     5
 63
     7
 74
     1
 91
        0
 64
     7
 65
   257
 75
     1
175
     1
 42
1.0
 92
        8
 66
     7
 43
1.0
 76
     1
 77
     6
 78
     2
 67
     7
 79
     3
170
     0
171
     0
290
     0
174
     0
 93
       13
 44
0.0
173
     0
291
     0
 45
0.0
1001
ACAD
1000
AcDbSavedByObjectVersion
1070
     0
  0
DICTIONARYVAR
  5
136B
102
{ACAD_REACTORS
330
B93
102
}
330
B93
100
DictionaryVariables
280
     0
  1
1:1
  0
DICTIONARYVAR
  5
136A
102
{ACAD_REACTORS
330
B93
102
}
330
B93
100
DictionaryVariables
280
     0
  1
STANDARD
  0
DICTIONARYVAR
  5
B94
102
{ACAD_REACTORS
330
B93
102
}
330
B93
100
DictionaryVariables
280
     0
  1
STANDARD
  0
DICTIONARYVAR
  5
14D3
102
{ACAD_REACTORS
330
B93
102
}
330
B93
100
DictionaryVariables
280
     0
  1
1
  0
DICTIONARYVAR
  5
14D1
102
{ACAD_REACTORS
330
B93
102
}
330
B93
100
DictionaryVariables
280
     0
  1
0
  0
DICTIONARYVAR
  5
1376
102
{ACAD_REACTORS
330
B93
102
}
330
B93
100
DictionaryVariables
280
     0
  1
1
  0
DICTIONARYVAR
  5
1377
102
{ACAD_REACTORS
330
B93
102
}
330
B93
100
DictionaryVariables
280
     0
  1
15
  0
DICTIONARYVAR
  5
1375
102
{ACAD_REACTORS
330
B93
102
}
330
B93
100
DictionaryVariables
280
     0
  1
0
  0
DICTIONARYVAR
  5
1374
102
{ACAD_REACTORS
330
B93
102
}
330
B93
100
DictionaryVariables
280
     0
  1
0
  0
DICTIONARYVAR
  5
14D0
102
{ACAD_REACTORS
330
B93
102
}
330
B93
100
DictionaryVariables
280
     0
  1
127
  0
DICTIONARYVAR
  5
150C
102
{ACAD_REACTORS
330
B93
102
}
330
B93
100
DictionaryVariables
280
     0
  1
2
  0
DICTIONARY
  5
1511
330
21
100
AcDbDictionary
280
     1
281
     1
  3
ACAD_XREC_ROUNDTRIP
360
1512
  0
DICTIONARY
  5
13B6
330
25
100
AcDbDictionary
280
     1
281
     1
  3
ACAD_XREC_ROUNDTRIP
360
1513
  3
ADSK_XREC_LAYOUTTHUMBNAIL
360
13B7
  0
DICTIONARY
  5
D4F
330
D4E
100
AcDbDictionary
280
     1
281
     1
  3
ACAD_XREC_ROUNDTRIP
360
1515
  3
BUMPTILE
360
D51
  3
DIFFUSETILE
360
D50
  3
OPACITYTILE
360
D54
  3
REFLECTIONTILE
360
D53
  3
REFRACTIONTILE
360
D55
  3
SPECULARTILE
360
D52
  0
DICTIONARY
  5
D47
330
D46
100
AcDbDictionary
280
     1
281
     1
  3
ACAD_XREC_ROUNDTRIP
360
1514
  3
BUMPTILE
360
D49
  3
DIFFUSETILE
360
D48
  3
OPACITYTILE
360
D4C
  3
REFLECTIONTILE
360
D4B
  3
REFRACTIONTILE
360
D4D
  3
SPECULARTILE
360
D4A
  0
DICTIONARY
  5
D57
330
D56
100
AcDbDictionary
280
     1
281
     1
  3
ACAD_XREC_ROUNDTRIP
360
1516
  3
BUMPTILE
360
D59
  3
DIFFUSETILE
360
D58
  3
OPACITYTILE
360
D5C
  3
REFLECTIONTILE
360
D5B
  3
REFRACTIONTILE
360
D5D
  3
SPECULARTILE
360
D5A
  0
DICTIONARY
  5
12A8
330
1D
100
AcDbDictionary
280
     1
281
     1
  3
ACAD_ROUNDTRIP_2008_TABLESTYLE_CELLSTYLEMAP
360
150D
  3
ACAD_XREC_ROUNDTRIP
360
1510
  0
DICTIONARY
  5
1521
330
D64
100
AcDbDictionary
280
     1
281
     1
  3
ACAD_XREC_ROUNDTRIP
360
1522
  0
DICTIONARY
  5
1525
330
D66
100
AcDbDictionary
280
     1
281
     1
  3
ACAD_XREC_ROUNDTRIP
360
1526
  0
DICTIONARY
  5
1523
330
D65
100
AcDbDictionary
280
     1
281
     1
  3
ACAD_XREC_ROUNDTRIP
360
1524
  0
DICTIONARY
  5
151F
330
D63
100
AcDbDictionary
280
     1
281
     1
  3
ACAD_XREC_ROUNDTRIP
360
1520
  0
DICTIONARY
  5
152D
330
D6A
100
AcDbDictionary
280
     1
281
     1
  3
ACAD_XREC_ROUNDTRIP
360
152E
  0
DICTIONARY
  5
1535
330
D6E
100
AcDbDictionary
280
     1
281
     1
  3
ACAD_XREC_ROUNDTRIP
360
1536
  0
DICTIONARY
  5
1527
330
D67
100
AcDbDictionary
280
     1
281
     1
  3
ACAD_XREC_ROUNDTRIP
360
1528
  0
DICTIONARY
  5
152B
330
D69
100
AcDbDictionary
280
     1
281
     1
  3
ACAD_XREC_ROUNDTRIP
360
152C
  0
DICTIONARY
  5
153B
330
136F
100
AcDbDictionary
280
     1
281
     1
  3
ACAD_XREC_ROUNDTRIP
360
153C
  0
DICTIONARY
  5
1533
330
D6D
100
AcDbDictionary
280
     1
281
     1
  3
ACAD_XREC_ROUNDTRIP
360
1534
  0
DICTIONARY
  5
1517
330
D5F
100
AcDbDictionary
280
     1
281
     1
  3
ACAD_XREC_ROUNDTRIP
360
1518
  0
DICTIONARY
  5
1519
330
D60
100
AcDbDictionary
280
     1
281
     1
  3
ACAD_XREC_ROUNDTRIP
360
151A
  0
DICTIONARY
  5
151B
330
D61
100
AcDbDictionary
280
     1
281
     1
  3
ACAD_XREC_ROUNDTRIP
360
151C
  0
DICTIONARY
  5
151D
330
D62
100
AcDbDictionary
280
     1
281
     1
  3
ACAD_XREC_ROUNDTRIP
360
151E
  0
DICTIONARY
  5
153F
330
137A
100
AcDbDictionary
280
     1
281
     1
  3
ACAD_XREC_ROUNDTRIP
360
1540
  0
DICTIONARY
  5
1537
330
136D
100
AcDbDictionary
280
     1
281
     1
  3
ACAD_XREC_ROUNDTRIP
360
1538
  0
DICTIONARY
  5
1531
330
D6C
100
AcDbDictionary
280
     1
281
     1
  3
ACAD_XREC_ROUNDTRIP
360
1532
  0
DICTIONARY
  5
1539
330
136E
100
AcDbDictionary
280
     1
281
     1
  3
ACAD_XREC_ROUNDTRIP
360
153A
  0
DICTIONARY
  5
1529
330
D68
100
AcDbDictionary
280
     1
281
     1
  3
ACAD_XREC_ROUNDTRIP
360
152A
  0
DICTIONARY
  5
1549
330
137F
100
AcDbDictionary
280
     1
281
     1
  3
ACAD_XREC_ROUNDTRIP
360
154A
  0
DICTIONARY
  5
1547
330
137E
100
AcDbDictionary
280
     1
281
     1
  3
ACAD_XREC_ROUNDTRIP
360
1548
  0
DICTIONARY
  5
1541
330
137B
100
AcDbDictionary
280
     1
281
     1
  3
ACAD_XREC_ROUNDTRIP
360
1542
  0
DICTIONARY
  5
1543
330
137C
100
AcDbDictionary
280
     1
281
     1
  3
ACAD_XREC_ROUNDTRIP
360
1544
  0
DICTIONARY
  5
152F
330
D6B
100
AcDbDictionary
280
     1
281
     1
  3
ACAD_XREC_ROUNDTRIP
360
1530
  0
DICTIONARY
  5
153D
330
1379
100
AcDbDictionary
280
     1
281
     1
  3
ACAD_XREC_ROUNDTRIP
360
153E
  0
DICTIONARY
  5
1545
330
137D
100
AcDbDictionary
280
     1
281
     1
  3
ACAD_XREC_ROUNDTRIP
360
1546
  0
XRECORD
  5
1512
102
{ACAD_REACTORS
330
1511
102
}
330
1511
100
AcDbXrecord
280
     1
102
SHADEPLOT
 70
     0
102
SHADEPLOTRESLEVEL
 70
     2
102
SHADEPLOTCUSTOMDPI
 70
   300
  0
XRECORD
  5
1513
102
{ACAD_REACTORS
330
13B6
102
}
330
13B6
100
AcDbXrecord
280
     1
102
SHADEPLOT
 70
     0
102
SHADEPLOTRESLEVEL
 70
     2
102
SHADEPLOTCUSTOMDPI
 70
   300
  0
XRECORD
  5
13B7
102
{ACAD_REACTORS
330
13B6
102
}
330
13B6
100
AcDbXrecord
280
     1
310
280000000001000070000000010008000000000000700000000000000000000000010000000000003028210000000000FFFFFF000000000000000000000000000000000000000000000000000000000000000000330000006600000099000000CC000000FF00000000330000333300006633000099330000CC330000FF3300
310
0000660000336600006666000099660000CC660000FF66000000990000339900006699000099990000CC990000FF99000000CC000033CC000066CC000099CC0000CCCC0000FFCC000000FF000033FF000066FF000099FF0000CCFF0000FFFF000000003300330033006600330099003300CC003300FF003300003333003333
310
33006633330099333300CC333300FF33330000663300336633006666330099663300CC663300FF66330000993300339933006699330099993300CC993300FF99330000CC330033CC330066CC330099CC3300CCCC3300FFCC330000FF330033FF330066FF330099FF3300CCFF3300FFFF330000006600330066006600660099
310
006600CC006600FF00660000336600333366006633660099336600CC336600FF33660000666600336666006666660099666600CC666600FF66660000996600339966006699660099996600CC996600FF99660000CC660033CC660066CC660099CC6600CCCC6600FFCC660000FF660033FF660066FF660099FF6600CCFF6600
310
FFFF660000009900330099006600990099009900CC009900FF00990000339900333399006633990099339900CC339900FF33990000669900336699006666990099669900CC669900FF66990000999900339999006699990099999900CC999900FF99990000CC990033CC990066CC990099CC9900CCCC9900FFCC990000FF99
310
0033FF990066FF990099FF9900CCFF9900FFFF99000000CC003300CC006600CC009900CC00CC00CC00FF00CC000033CC003333CC006633CC009933CC00CC33CC00FF33CC000066CC003366CC006666CC009966CC00CC66CC00FF66CC000099CC003399CC006699CC009999CC00CC99CC00FF99CC0000CCCC0033CCCC0066CC
310
CC0099CCCC00CCCCCC00FFCCCC0000FFCC0033FFCC0066FFCC0099FFCC00CCFFCC00FFFFCC000000FF003300FF006600FF009900FF00CC00FF00FF00FF000033FF003333FF006633FF009933FF00CC33FF00FF33FF000066FF003366FF006666FF009966FF00CC66FF00FF66FF000099FF003399FF006699FF009999FF00CC
310
99FF00FF99FF0000CCFF0033CCFF0066CCFF0099CCFF00CCCCFF00FFCCFF0000FFFF0033FFFF0066FFFF0099FFFF00CCFFFF00FFFFFF00000000000D0D0D001A1A1A00282828003535350043434300505050005D5D5D006B6B6B00787878008686860093939300A1A1A100AEAEAE00BBBBBB00C9C9C900D6D6D600E4E4E400
310
F1F1F100FFFFFF000000000000000000000000000000000000000000000000000000000000000000000000000000000000000000000000000000000000000000000000000000000000000000000000000000000000000000000000000000000000000000000000000000000000000000000000000000000000000000000000
310
00000000000000000000000000000000000000000000000000000000000000000000000000000000000000000000000000000000000000000000000000000000000000000000000000000000000000000000000000000000000000000000000000000000000000000000000000000000000000000000000000000000000000
310
00000000000000000000000000000000000000000000000000000000000000000000000000000000000000000000000000000000000000000000000000000000000000000000000000000000000000000000000000000000000000000000000000000000000000000000000000000000000000000000000000000000000000
310
00000000000000000000000000000000000000000000000000000000000000000000000000000000000000000000000000000000000000000000000000000000000000000000000000000000000000000000000000000000000000000000000000000000000000000000000000000000000000000000000000000000000000
310
00000000000000000000000000000000000000000000000000000000000000000000000000000000000000000000000000000000000000000000000000000000000000000000000000000000000000000000000000000000000000000000000000000000000000000000000000000000000000000000000000000000000000
310
00000000000000000000000000000000000000000000000000000000000000000000000000000000000000000000000000000000000000000000000000000000000000000000000000000000000000000000000000000000000000000000000000000000000000000000000000000000000000000000000000000000000000
310
00000000000000000000000000000000000000000000000000000000000000000000000000000000000000000000000000000000000000000000000000000000000000000000000000000000000000000000000000000000000000000000000000000000000000000000000000000000000000000000000000000000000000
310
00000000000000000000000000000000000000000000000000000000000000000000000000000000000000000000000000000000000000000000000000000000000000000000000000000000000000000000000000000000000000000000000000000000000000000000000000000000000000000000000000000000000000
310
00000000000000000000000000000000000000000000000000000000000000000000000000000000000000000000000000000000000000000000000000000000000000000000000000000000000000000000000000000000000000000000000000000000000000000000000000000000000000000000000000000000000000
310
00000000000000000000000000000000000000000000000000000000000000000000000000000000000000000000000000000000000000000000000000000000000000000000000000000000000000000000000000000000000000000000000000000000000000000000000000000000000000000000000000000000000000
310
00000000000000000000000000000000000000000000000000000000000000000000000000000000000000000000000000000000000000000000000000000000000000000000000000000000000000000000000000000000000000000000000000000000000000000000000000000000000000000000000000000000000000
310
00000000000000000000000000000000000000000000000000000000000000000000000000000000000000000000000000000000000000000000000000000000000000000000000000000000000000000000000000000000000000000000000000000000000000000000000000000000000000000000000000000000000000
310
00000000000000000000000000000000000000000000000000000000000000000000000000000000000000000000000000000000000000000000000000000000000000000000000000000000000000000000000000000000000000000000000000000000000000000000000000000000000000000000000000000000000000
310
00000000000000000000000000000000000000000000000000000000000000000000000000000000000000000000000000000000000000000000000000000000000000000000000000000000000000000000000000000000000000000000000000000000000000000000000000000000000000000000000000000000000000
310
00000000000000000000000000000000000000000000000000000000000000000000000000000000000000000000000000000000000000000000000000000000000000000000000000000000000000000000000000000000000000000000000000000000000000000000000000000000000000000000000000000000000000
310
00000000000000000000000000000000000000000000000000000000000000000000000000000000000000000000000000000000000000000000000000000000000000000000000000000000000000000000000000000000000000000000000000000000000000000000000000000000000000000000000000000000000000
310
00000000000000000000000000000000000000000000000000000000000000000000000000000000000000000000000000000000000000000000000000000000000000000000000000000000000000000000000000000000000000000000000000000000000000000000000000000000000000000000000000000000000000
310
00000000000000000000000000000000000000000000000000000000000000000000000000000000000000000000000000000000000000000000000000000000000000000000000000000000000000000000000000000000000000000000000000000000000000000000000000000000000000000000000000000000000000
310
00000000000000000000000000000000000000000000000000000000000000000000000000000000000000000000000000000000000000000000000000000000000000000000000000000000000000000000000000000000000000000000000000000000000000000000000000000000000000000000000000000000000000
310
00000000000000000000000000000000000000000000000000000000000000000000000000000000000000000000000000000000000000000000000000000000000000000000000000000000000000000000000000000000000000000000000000000000000000000000000000000000000000000000000000000000000000
310
00000000000000000000000000000000000000000000000000000000000000000000000000000000000000000000000000000000000000000000000000000000000000000000000000000000000000000000000000000000000000000000000000000000000000000000000000000000000000000000000000000000000000
310
00000000000000000000000000000000000000000000000000000000000000000000000000000000000000000000000000000000000000000000000000000000000000000000000000000000000000000000000000000000000000000000000000000000000000000000000000000000000000000000000000000000000000
310
00000000000000000000000000000000000000000000000000000000000000000000000000000000000000000000000000000000000000000000000000000000000000000000000000000000000000000000000000000000000000000000000000000000000000000000000000000000000000000000000000000000000000
310
00000000000000000000000000000000000000000000000000000000000000000000000000000000000000000000000000000000000000000000000000000000000000000000000000000000000000000000000000000000000000000000000000000000000000000000000000000000000000000000000000000000000000
310
00000000000000000000000000000000000000000000000000000000000000000000000000000000000000000000000000000000000000000000000000000000000000000000000000000000000000000000000000000000000000000000000000000000000000000000000000000000000000000000000000000000000000
310
00000000000000000000000000000000000000000000000000000000000000000000000000000000000000000000000000000000000000000000000000000000000000000000000000000000000000000000000000000000000000000000000000000000000000000000000000000000000000000000000000000000000000
310
00000000000000000000000000000000000000000000000000000000000000000000000000000000000000000000000000000000000000000000000000000000000000000000000000000000000000000000000000000000000000000000000000000000000000000000000000000000000000000000000000000000000000
310
00000000000000000000000000000000000000000000000000000000000000000000000000000000000000000000000000000000000000000000000000000000000000000000000000000000000000000000000000000000000000000000000000000000000000000000000000000000000000000000000000000000000000
310
00000000000000000000000000000000000000000000000000000000000000000000000000000000000000000000000000000000000000000000000000000000000000000000000000000000000000000000000000000000000000000000000000000000000000000000000000000000000000000000000000000000000000
310
00000000000000000000000000000000000000000000000000000000000000000000000000000000000000000000000000000000000000000000000000000000000000000000000000000000000000000000000000000000000000000000000000000000000000000000000000000000000000000000000000000000000000
310
00000000000000000000000000000000000000000000000000000000000000000000000000000000000000000000000000000000000000000000000000000000000000000000000000000000000000000000000000000000000000000000000000000000000000000000000000000000000000000000000000000000000000
310
00000000000000000000000000000000000000000000000000000000000000000000000000000000000000000000000000000000000000000000000000000000000000000000000000000000000000000000000000000000000000000000000000000000000000000000000000000000000000000000000000000000000000
310
00000000000000000000000000000000000000000000000000000000000000000000000000000000000000000000000000000000000000000000000000000000000000000000000000000000000000000000000000000000000000000000000000000000000000000000000000000000000000000000000000000000000000
310
00000000000000000000000000000000000000000000000000000000000000000000000000000000000000000000000000000000000000000000000000000000000000000000000000000000000000000000000000000000000000000000000000000000000000000000000000000000000000000000000000000000000000
310
00000000000000000000000000000000000000000000000000000000000000000000000000000000000000000000000000000000000000000000000000000000000000000000000000000000000000000000000000000000000000000000000000000000000000000000000000000000000000000000000000000000000000
310
00000000000000000000000000000000000000000000000000000000000000000000000000000000000000000000000000000000000000000000000000000000000000000000000000000000000000000000000000000000000000000000000000000000000000000000000000000000000000000000000000000000000000
310
00000000000000000000000000000000000000000000000000000000000000000000000000000000000000000000000000000000000000000000000000000000000000000000000000000000000000000000000000000000000000000000000000000000000000000000000000000000000000000000000000000000000000
310
00000000000000000000000000000000000000000000000000000000000000000000000000000000000000000000000000000000000000000000000000000000000000000000000000000000000000000000000000000000000000000000000000000000000000000000000000000000000000000000000000000000000000
310
00000000000000000000000000000000000000000000000000000000000000000000000000000000000000000000000000000000000000000000000000000000000000000000000000000000000000000000000000000000000000000000000000000000000000000000000000000000000000000000000000000000000000
310
00000000000000000000000000000000000000000000000000000000000000000000000000000000000000000000000000000000000000000000000000000000000000000000000000000000000000000000000000000000000000000000000000000000000000000000000000000000000000000000000000000000000000
310
00000000000000000000000000000000000000000000000000000000000000000000000000000000000000000000000000000000000000000000000000000000000000000000000000000000000000000000000000000000000000000000000000000000000000000000000000000000000000000000000000000000000000
310
00000000000000000000000000000000000000000000000000000000000000000000000000000000000000000000000000000000000000000000000000000000000000000000000000000000000000000000000000000000000000000000000000000000000000000000000000000000000000000000000000000000000000
310
00000000000000000000000000000000000000000000000000000000000000000000000000000000000000000000000000000000000000000000000000000000000000000000000000000000000000000000000000000000000000000000000000000000000000000000000000000000000000000000000000000000000000
310
00000000000000000000000000000000000000000000000000000000000000000000000000000000000000000000000000000000000000000000000000000000000000000000000000000000000000000000000000000000000000000000000000000000000000000000000000000000000000000000000000000000000000
310
00000000000000000000000000000000000000000000000000000000000000000000000000000000000000000000000000000000000000000000000000000000000000000000000000000000000000000000000000000000000000000000000000000000000000000000000000000000000000000000000000000000000000
310
00000000000000000000000000000000000000000000000000000000000000000000000000000000000000000000000000000000000000000000000000000000000000000000000000000000000000000000000000000000000000000000000000000000000000000000000000000000000000000000000000000000000000
310
00000000000000000000000000000000000000000000000000000000000000000000000000000000000000000000000000000000000000000000000000000000000000000000000000000000000000000000000000000000000000000000000000000000000000000000000000000000000000000000000000000000000000
310
00000000000000000000000000000000000000000000000000000000000000000000000000000000000000000000000000000000000000000000000000000000000000000000000000000000000000000000000000000000000000000000000000000000000000000000000000000000000000000000000000000000000000
310
00000000000000000000000000000000000000000000000000000000000000000000000000000000000000000000000000000000000000000000000000000000000000000000000000000000000000000000000000000000000000000000000000000000000000000000000000000000000000000000000000000000000000
310
00000000000000000000000000000000000000000000000000000000000000000000000000000000000000000000000000000000000000000000000000000000000000000000000000000000000000000000000000000000000000000000000000000000000000000000000000000000000000000000000000000000000000
310
00000000000000000000000000000000000000000000000000000000000000000000000000000000000000000000000000000000000000000000000000000000000000000000000000000000000000000000000000000000000000000000000000000000000000000000000000000000000000000000000000000000000000
310
00000000000000000000000000000000000000000000000000000000000000000000000000000000000000000000000000000000000000000000000000000000000000000000000000000000000000000000000000000000000000000000000000000000000000000000000000000000000000000000000000000000000000
310
00000000000000000000000000000000000000000000000000000000000000000000000000000000000000000000000000000000000000000000000000000000000000000000000000000000000000000000000000000000000000000000000000000000000000000000000000000000000000000000000000000000000000
310
00000000000000000000000000000000000000000000000000000000000000000000000000000000000000000000000000000000000000000000000000000000000000000000000000000000000000000000000000000000000000000000000000000000000000000000000000000000000000000000000000000000000000
310
00000000000000000000000000000000000000000000000000000000000000000000000000000000000000000000000000000000000000000000000000000000000000000000000000000000000000000000000000000000000000000000000000000000000000000000000000000000000000000000000000000000000000
310
00000000000000000000000000000000000000000000000000000000000000000000000000000000000000000000000000000000000000000000000000000000000000000000000000000000000000000000000000000000000000000000000000000000000000000000000000000000000000000000000000000000000000
310
00000000000000000000000000000000000000000000000000000000000000000000000000000000000000000000000000000000000000000000000000000000000000000000000000000000000000000000000000000000000000000000000000000000000000000000000000000000000000000000000000000000000000
310
000000000000000000000000000000000000000000000000000000F5F5F5F5F5F5F5F5F5F5F5F5F5F5F5F5F5F5F5F5F5F5F5F5F5F5F5F5F5F5F5F5F5F5F5F5F5F5F5F5F5F5F5F5F5F5F5F5F5F5F5F5F5F5F5F5F5F5F5F5F5F5F5F5F5F5F5F5F5F5F5F5F5F5F5F5F5F5F5F5F5F5F5F5F5F5F5F5F5F500000000000000000000
310
00000000000000000000000000000000000000000000000000000000000000000000000000000000000000000000000000000000000000000000000000000000000000000000000000000000000000000000000000000000000000000000000000000000000000000000000000000000000000000000000000000000000000
310
00000000000000000000000000000000000000000000000000000000F50000000000000000000000000000000000000000000000000000000000000000000000000000000000000000F5000000000000000000000000000000000000000000000000000000000000000000000000000000000000000000F500000000000000
310
00000000000000000000000000000000000000000000000000000000000000000000000000000000000000000000000000000000000000000000000000000000000000000000000000000000000000000000000000000000000000000000000000000000000000000000000000000000000000000000000000000000000000
310
000000000000000000000000000000000000000000000000000000000000F5000000000000000000000000F5F5F5F5F5F5F5F5F5F5F5F5F5F5F5F5F5F5F5F5F5F5F5F5F5F5F5F5F5F5F5F5F5F5F5F5F5F5F5F5F5F5F5F5F5F5F5F5F5F5F5F5F5F5F5F5F5F5F5F5F5F5F5F5F5F500000000000000000000000000F500000000
310
00000000000000000000000000000000000000000000000000000000000000000000000000000000000000000000000000000000000000000000000000000000000000000000000000000000000000000000000000000000000000000000000000000000000000000000000000000000000000000000000000000000000000
310
00000000000000000000000000000000000000000000000000000000000000F500000000000000F5F5F5F5F5F50000000000000000000000000000000000000000000000000000000000000000F5000000000000000000000000000000000000000000000000000000000000000000F5F5F5F5F5F500000000000000F50000
310
00000000000000000000000000000000000000000000000000000000000000000000000000000000000000000000000000000000000000000000000000000000000000000000000000000000000000000000000000000000000000000000000000000000000000000000000000000000000000000000000000000000000000
310
0000000000000000000000000000000000000000000000000000000000000000F5000000000000F5F50000000000000000000000000000000000000000000000000000000000000000000000000000F5000000000000000000000000000000000000000000000000000000000000000000000000000000F5F5000000000000
310
F5000000000000000000000000000000000000000000000000000000000000000000000000000000000000000000000000000000000000000000000000000000000000000000000000000000000000000000000000000000000000000000000000000000000000000000000000000000000000000000000000000000000000
310
00000000000000000000000000000000000000000000000000000000000000000000F50000000000F500000000000000000000000000000000000000000000000000000000000000000000000000000000F50000000000000000000000000000000000000000000000000000000000000000000000000000000000F5000000
310
F5F5F500000000000000000000000000000000000000000000000000000000000000000000000000000000000000000000000000000000000000000000000000000000000000000000000000000000000000000000000000000000000000000000000000000000000000000000000000000000000000000000000000000000
310
000000000000000000000000000000000000000000000000000000000000000000000000F500000000F50000000000000000000000000000000000000000000000000000000000000000000000000000000000F5000000000000000000000000000000000000000000000000000000000000000000000000000000000000F5
310
0000F5F5F50000000000000000000000000000000000000000000000000000000000000000000000000000000000000000000000000000000000000000000000000000000000000000000000000000000000000000000000000000000000000000000000000000000000000000000000000000000000000000000000000000
310
0000000000000000000000000000000000000000000000000000000000000000000000000000F500000000F50000000000000000000000000000000000000000000000000000000000000000000000000000000000F5F500000000000000000000000000000000000000000000000000000000000000000000000000000000
310
0000F500F5F5F5000000000000000000000000000000000000000000000000000000000000000000000000000000000000000000000000000000000000000000000000000000000000000000000000000000000000000000000000000000000000000000000000000000000000000000000000000000000000000000000000
310
00000000000000000000000000000000000000000000000000000000000000000000000000000000F5000000F5000000000000000000000000000000000000000000000000000000000000000000000000000000000000F5000000000000000000000000000000000000000000000000000000000000000000000000000000
310
00000000F500F5F5F500000000000000000000000000000000000000000000000000000000000000000000000000000000000000000000000000000000000000000000000000000000000000000000000000000000000000000000000000000000000000000000000000000000000000000000000000000000000000000000
310
000000000000000000000000000000000000000000000000000000000000000000000000000000000000F5000000F5000000000000000000000000000000000000000000000000000000000000000000000000000000000000F5F5000000000000000000000000000000000000000000000000000000000000000000000000
310
000000000000F500F5F5F50000000000000000000000000000000000000000000000000000000000000000000000000000000000000000000000000000000000000000000000000000000000000000000000000000000000000000000000000000000000000000000000000000000000000000000000000000000000000000
310
0000000000000000000000000000000000000000000000000000000000000000000000000000000000000000F5000000F5000000000000000000000000000000000000000000000000000000000000000000000000000000000000000000000000000000000000000000000000000000000000000000000000000000000000
310
0000000000000000F500F5F5F5000000000000000000000000000000000000000000000000000000000000000000000000000000000000000000000000000000000000000000000000000000000000000000000000000000000000000000000000000000000000000000000000000000000000000000000000000000000000
310
00000000000000000000000000000000000000000000000000000000000000000000000000000000000000000000F5000000F500000000000000000000000000000000000000000000000000000000000000000000000000000000000000000000000000000000000000000000000000000000000000000000000000000000
310
00000000000000000000F500F5F5F500000000000000000000000000000000000000000000000000000000000000000000000000000000000000000000000000000000000000000000000000000000000000000000000000000000000000000000000000000000000000000000000000000000000000000000000000000000
310
000000000000000000000000000000000000000000000000000000000000000000000000000000000000000000000000F5000000F50000000000000000000000000000000000000000000000000000000000000000000000000000000000000000000000000000000000000000000000000000000000000000000000000000
310
000000000000000000000000F5000000F50000000000000000000000000000000000000000000000000000000000000000000000000000000000000000000000000000000000000000000000000000000000000000000000000000000000000000000000000000000000000000000000000000000000000000000000000000
310
0000000000000000000000000000000000000000000000000000000000000000000000000000000000000000000000000000F50000F500000000000000000000000000000000000000000000000000000000000000000000000000000000000000000000000000000000000000000000000000000000000000000000000000
310
0000000000000000000000000000F5000000F5000000000000000000000000000000000000000000000000000000000000000000000000000000000000000000000000000000000000000000000000000000000000000000000000000000000000000000000000000000000000000000000000000000000000000000000000
310
00000000000000000000000000000000000000000000000000000000000000000000000000000000000000000000000000000000F50000F50000000000000000000000000000000000000000000000000000000000000000000000000000000000000000000000000000000000000000000000000000000000000000000000
310
0000000000000000000000000000000000F50000F500000000000000000000000000000000000000000000000000000000000000000000000000000000000000000000000000000000000000000000000000000000000000000000000000000000000000000000000000000000000000000000000000000000000000000000
310
000000000000000000000000000000000000000000000000000000000000000000000000000000000000000000000000000000000000F50000F5000000000000000000000000000000000000000000000000000000000000000000000000000000000000000000000000000000000000000000000000000000000000000000
310
00000000000000000000000000000000000000F50000F50000000000000000000000000000000000000000000000000000000000000000000000000000000000000000000000000000000000000000000000000000000000000000000000000000000000000000000000000000000000000000000000000000000000000000
310
0000000000000000000000000000000000000000000000000000000000000000000000000000000000000000000000000000000000000000F50000F500000000000000000000000000000000000000000000000000000000000000000000000000000000000000000000000000000000000000000000000000000000000000
310
000000000000000000000000000000000000000000F50000F5000000000000000000000000000000000000000000000000000000000000000000000000000000000000000000000000000000000000000000000000000000000000000000000000000000000000000000000000000000000000000000000000000000000000
310
00000000000000000000000000000000000000000000000000000000000000000000000000000000000000000000000000000000000000000000F500F5000000000000000000000000000000000000000000000000000000000000000000000000000000000000000000000000000000000000000000000000000000000000
310
0000000000000000000000000000000000000000000000F50000F500000000000000000000000000000000000000000000000000000000000000000000000000000000000000000000000000000000000000000000000000000000000000000000000000000000000000000000000000000000000000000000000000000000
310
000000000000000000000000000000000000000000000000000000000000000000000000000000000000000000000000000000000000000000000000F500F500000000000000000000000000000000000000000000000000000000000000000000000000000000000000000000000000000000000000000000000000000000
310
00000000000000000000000000000000000000000000000000F50000F50000000000000000000000000000000000000000000000000000000000000000000000000000000000000000000000000000000000000000000000000000000000000000000000000000000000000000000000000000000000000000000000000000
310
0000000000000000000000000000000000000000000000000000000000000000000000000000000000000000000000000000000000000000000000000000F500F50000000000000000000000000000000000000000000000000000000000000000000000000000000000000000000000000000000000000000000000000000
310
000000000000000000000000000000000000000000000000000000F50000F5000000000000000000000000000000000000000000000000000000000000000000000000000000000000000000000000000000000000000000000000000000000000000000000000000000000000000000000000000000000000000000000000
310
00000000000000000000000000000000000000000000000000000000000000000000000000000000000000000000000000000000000000000000000000000000F500F5000000000000000000000000000000000000000000000000000000000000000000000000000000000000000000000000000000000000000000000000
310
0000000000000000000000000000000000000000000000000000000000F50000F500000000000000000000000000000000000000000000000000000000000000000000000000000000000000000000000000000000000000000000000000000000000000000000000000000000000000000000000000000000000000000000
310
000000000000000000000000000000000000000000000000000000000000000000000000000000000000000000000000000000000000000000000000000000000000F500F500000000000000000000000000000000000000000000000000000000000000000000000000000000000000000000000000000000000000000000
310
00000000000000000000000000000000000000000000000000000000000000F50000F50000000000000000000000000000000000000000000000000000000000000000000000000000000000000000000000000000000000000000000000000000000000000000000000000000000000000000000000000000000000000000
310
0000000000000000000000000000000000000000000000000000000000000000000000000000000000000000000000000000000000000000000000000000000000000000F500F50000000000000000000000000000000000000000000000000000000000000000000000000000000000000000000000000000000000000000
310
000000000000000000000000000000000000000000000000000000000000000000F50000F5000000000000000000000000000000000000000000000000000000000000000000000000000000000000000000000000000000000000000000000000000000000000000000000000000000000000000000000000000000000000
310
00000000000000000000000000000000000000000000000000000000000000000000000000000000000000000000000000000000000000000000000000000000000000000000F500F5000000000000000000000000000000000000000000000000000000000000000000000000000000000000000000000000000000000000
310
000000000000000000000000000000000000000000000000000000000000000000000000F500F500000000000000000000000000000000000000000000000000000000000000000000000000000000000000000000000000000000000000000000000000000000000000000000000000000000000000000000000000000000
310
000000000000000000000000000000000000000000000000000000000000000000000000000000000000000000000000000000000000000000000000000000000000000000000000F500F500000000000000000000000000000000000000000000000000000000000000000000000000000000000000000000000000000000
310
0000000000000000000000000000000000000000000000000000000000000000000000000000F500F50000000000000000000000000000000000000000000000000000000000000000000000000000000000000000000000000000000000000000000000000000000000000000000000000000000000000000000000000000
310
0000000000000000000000000000000000000000000000000000000000000000000000000000000000000000000000000000000000000000000000000000000000000000000000000000F500F50000000000000000000000000000000000000000000000000000000000000000000000000000000000000000000000000000
310
00000000000000000000000000000000000000000000000000000000000000000000000000000000F500F5000000000000000000000000000000000000000000000000000000000000000000000000000000000000000000000000000000000000000000000000000000000000000000000000000000000000000000000000
310
00000000000000000000000000000000000000000000000000000000000000000000000000000000000000000000000000000000000000000000000000000000000000000000000000000000F500F5000000000000000000000000000000000000000000000000000000000000000000000000000000000000000000000000
310
000000000000000000000000000000000000000000000000000000000000000000000000000000000000F500F500000000000000000000000000000000000000000000000000000000000000000000000000000000000000000000000000000000000000000000000000000000000000000000000000000000000000000000
310
000000000000000000000000000000000000000000000000000000000000000000000000000000000000000000000000000000000000000000000000000000000000000000000000000000000000F500F500000000000000000000000000000000000000000000000000000000000000000000000000000000000000000000
310
0000000000000000000000000000000000000000000000000000000000000000000000000000000000000000F500F50000000000000000000000000000000000000000000000000000000000000000000000000000000000000000000000000000000000000000000000000000000000000000000000000000000000000000
310
0000000000000000000000000000000000000000000000000000000000000000000000000000000000000000000000000000000000000000000000000000000000000000000000000000000000000000F500F5000000000000000000000000000000000000000000000000000000000000000000000000F5F5F5F5F500F5F5
310
F5F5F5F5F5F5F5000000000000000000000000000000000000000000000000000000000000000000000000000000F500F5000000000000000000000000000000000000000000000000000000000000000000000000000000000000000000000000000000000000000000000000000000000000000000000000000000000000
310
00000000000000000000000000000000000000000000000000000000000000000000000000000000000000000000000000000000000000000000000000000000000000000000000000000000000000000000F500F5000000000000000000000000000000000000000000000000000000000000000000000000F5F5F5F5F5F5
310
F5F5F5F5F5F5F5F5F5000000000000000000000000000000000000000000000000000000000000000000000000000000F500F500000000000000000000000000000000000000000000000000000000000000000000000000000000000000000000000000000000000000000000000000000000000000000000000000000000
310
000000000000000000000000000000000000000000000000000000000000000000000000000000000000000000000000000000000000000000000000000000000000000000000000000000000000000000000000F500F500000000000000000000000000000000000000000000000000000000000000000000000000000000
310
0000000000000000000000000000000000000000000000000000000000000000000000000000000000000000000000000000F500F50000000000000000000000000000000000000000000000000000000000000000000000000000000000000000000000000000000000000000000000000000000000000000000000000000
310
0000000000000000000000000000000000000000000000000000000000000000000000000000000000000000000000000000000000000000000000000000000000000000000000000000000000000000000000000000F500F50000000000000000000000000000000000000000000000000000000000000000000000000000
310
00000000000000000000000000000000000000000000000000000000000000000000000000000000000000000000000000000000F500F5000000000000000000000000000000000000000000000000000000000000000000000000000000000000000000000000000000000000000000000000000000000000000000000000
310
00000000000000000000000000000000000000000000000000000000000000000000000000000000000000000000000000000000000000000000000000000000000000000000000000000000000000000000000000000000F500F5000000000000000000000000000000000000000000000000000000000000000000000000
310
000000000000000000000000000000000000000000000000000000000000000000000000000000000000000000000000000000000000F500F500000000000000000000000000000000000000000000000000000000000000000000000000000000000000000000000000000000000000000000000000000000000000000000
310
000000000000000000000000000000000000000000000000000000000000000000000000000000000000000000000000000000000000000000000000000000000000000000000000000000000000000000000000000000000000F500F500000000000000000000000000000000000000000000000000000000000000000000
310
0000000000000000000000000000000000000000000000000000000000000000000000000000000000000000000000000000000000000000F500F50000000000000000000000000000000000000000000000000000000000000000000000000000000000000000000000000000000000000000000000000000000000000000
310
0000000000000000000000000000000000000000000000000000000000000000000000000000000000000000000000000000000000000000000000000000000000000000000000000000000000000000000000000000000000000000F500F50000000000000000000000000000000000000000000000000000000000000000
310
00000000000000000000000000000000000000000000000000000000000000000000000000000000000000000000000000000000000000000000F500F5000000000000000000000000000000000000000000000000000000000000000000000000000000000000000000000000000000000000000000000000000000000000
310
00000000000000000000000000000000000000000000000000000000000000000000000000000000000000000000000000000000000000000000000000000000000000000000000000000000000000000000000000000000000000000000F500F5000000000000000000000000000000000000000000000000000000000000
310
000000000000000000000000000000000000000000000000000000000000000000000000000000000000000000000000000000000000000000000000F500F500000000000000000000000000000000000000000000000000000000000000000000000000000000000000000000000000000000000000000000000000000000
310
000000000000000000000000000000000000000000000000000000000000000000000000000000000000000000000000000000000000000000000000000000000000000000000000000000000000000000000000000000000000000000000000F500F500000000000000000000000000000000000000000000000000000000
310
0000000000000000000000000000000000000000000000000000000000000000000000000000000000000000000000000000000000000000000000000000F500F50000000000000000000000000000000000000000000000000000000000000000000000000000000000000000000000000000000000000000000000000000
310
0000000000000000000000000000000000000000000000000000000000000000000000000000000000000000000000000000000000000000000000000000000000000000000000000000000000000000000000000000000000000000000000000000F500F50000000000000000000000000000000000000000000000000000
310
00000000000000000000000000000000000000000000000000000000000000000000000000000000000000000000000000000000000000000000000000000000F500F5000000000000000000000000000000000000000000000000000000000000000000000000000000000000000000000000000000000000000000000000
310
00000000000000000000000000000000000000000000000000000000000000000000000000000000000000000000000000000000000000000000000000000000000000000000000000000000000000000000000000000000000000000000000000000000F500F5000000000000000000000000000000000000000000000000
310
000000000000000000000000000000000000000000000000000000000000000000000000000000000000000000000000000000000000000000000000000000000000F500F500000000000000000000000000000000000000000000000000000000000000000000000000000000000000000000000000000000000000000000
310
000000000000000000000000000000000000000000000000000000000000000000000000000000000000000000000000000000000000000000000000000000000000000000000000000000000000000000000000000000000000000000000000000000000000F500F500000000000000000000000000000000000000000000
310
0000000000000000000000000000000000000000000000000000000000000000000000000000000000000000000000000000000000000000000000000000000000000000F500F50000000000000000000000000000000000000000000000000000000000000000000000000000000000000000000000000000000000000000
310
0000000000000000000000000000000000000000000000000000000000000000000000000000000000000000000000000000000000000000000000000000000000000000000000000000000000000000000000000000000000000000000000000000000000000000F50000F500000000000000000000000000000000000000
310
000000000000000000000000000000000000000000000000000000000000000000000000000000000000000000000000000000000000000000000000000000000000000000F50000F5000000000000000000000000000000000000000000000000000000000000000000000000000000000000000000000000000000000000
310
00000000000000000000000000000000000000000000000000000000000000000000000000000000000000000000000000000000000000000000000000000000000000000000000000000000000000000000000000000000000000000000000000000000000000000000F50000F50000000000000000000000000000000000
310
0000000000000000000000000000000000000000000000000000000000000000000000000000000000000000000000000000000000000000000000000000000000000000000000F50000F500000000000000000000000000000000000000000000000000000000000000000000000000000000000000000000000000000000
310
000000000000000000000000000000000000000000000000000000000000000000000000000000000000000000000000000000000000000000000000000000000000000000000000000000000000000000000000000000000000000000000000000000000000000000000000F50000F5000000000000000000000000000000
310
00000000000000000000000000000000000000000000000000000000000000000000000000000000000000000000000000000000000000000000000000000000000000000000000000F50000F50000000000000000000000000000000000000000000000000000000000000000000000000000000000000000000000000000
310
0000000000000000000000000000000000000000000000000000000000000000000000000000000000000000000000000000000000000000000000000000000000000000000000000000000000000000000000000000000000000000000000000000000000000000000000000000F50000F500000000000000000000000000
310
000000000000000000000000000000000000000000000000000000000000000000000000000000000000000000000000000000000000000000000000000000000000000000000000000000F50000F5000000000000000000000000000000000000000000000000000000000000000000000000000000000000000000000000
310
00000000000000000000000000000000000000000000000000000000000000000000000000000000000000000000000000000000000000000000000000000000000000000000000000000000000000000000000000000000000000000000000000000000000000000000000000000000F50000F50000000000000000000000
310
0000000000000000000000000000000000000000000000000000000000000000000000000000000000000000000000000000000000000000000000000000000000000000000000000000000000F50000F500000000000000000000000000000000000000000000000000000000000000000000000000000000000000000000
310
000000000000000000000000000000000000000000000000000000000000000000000000000000000000000000000000000000000000000000000000000000000000000000000000000000000000000000000000000000000000000000000000000000000000000000000000000000000000F5000000F50000000000000000
310
00000000000000000000000000000000000000000000000000000000000000000000000000000000000000000000000000000000000000000000000000000000000000000000000000000000000000F50000F50000000000000000000000000000000000000000000000000000000000000000000000000000000000000000
310
0000000000000000000000000000000000000000000000000000000000000000000000000000000000000000000000000000000000000000000000000000000000000000000000000000000000000000000000000000000000000000000000000000000000000000000000000000000000000000F5000000F5000000000000
310
0000000000000000000000000000000000F5F5F5F5F5F5F5F5F5F5F5F5F5F5F5F5F5F5F5F500000000000000000000000000000000000000000000000000000000000000000000000000000000000000F5000000F5000000000000000000000000000000000000000000000000000000000000000000000000000000000000
310
00000000000000000000000000000000000000000000000000000000000000000000000000000000000000000000000000000000000000000000000000000000000000000000000000000000000000000000000000000000000000000000000000000000000000000000000000000000000000000000F500000000F5000000
310
000000000000000000000000000000000000F5F5F5F5F5F5F5F5F5F5F5F5F5F5F5F5F5F5F5F5F5F5F50000000000000000000000000000000000000000000000000000000000000000000000000000000000F5000000F500000000000000000000000000000000000000000000000000000000000000000000000000000000
310
000000000000000000000000000000000000000000000000000000000000000000000000000000000000000000000000000000000000000000000000000000000000000000000000000000000000000000000000000000000000000000000000000000000000000000000000000000000000000000000000F500000000F500
310
00000000000000000000000000000000000000F5000000F500F50000F500000000F500F50000F50000000000000000000000000000000000000000000000000000000000000000000000000000000000000000F500000000F50000000000000000000000000000000000000000000000000000000000000000000000000000
310
0000000000000000000000000000000000000000000000000000000000000000000000000000000000000000000000000000000000000000000000000000000000000000000000000000000000000000000000000000000000000000000000000000000000000000000000000000000000000000000000000000F500000000
310
00F500000000000000000000000000000000000000F50000000000000000000000000000000000000000000000000000000000000000000000000000000000000000000000000000000000000000000000000000F50000000000F5000000000000000000000000000000000000000000000000000000000000000000000000
310
00000000000000000000000000000000000000000000000000000000000000000000000000000000000000000000000000000000000000000000000000000000000000000000000000000000000000000000000000000000000000000000000000000000000000000000000000000000000000000000000000000000F50000
310
00000000F50000000000000000000000000000000000F50000000000000000000000000000000000000000000000000000000000000000000000000000000000000000000000000000000000000000000000000000F5000000000000F500000000000000000000000000000000000000000000000000000000000000000000
310
000000000000000000000000000000000000000000000000000000000000000000000000000000000000000000000000000000000000000000000000000000000000000000000000000000000000000000000000000000000000000000000000000000000000000000000000000000000000000000000000000000000000F5
310
00000000000000F5F5F5F5F5F5F500000000000000000000F500000000000000000000000000000000000000000000000000000000000000000000000000000000000000000000000000000000000000F5F5F5F5F5F5F500000000000000F50000000000000000000000000000000000000000000000000000000000000000
310
00000000000000000000000000000000000000000000000000000000000000000000000000000000000000000000000000000000000000000000000000000000000000000000000000000000000000000000000000000000000000000000000000000000000000000000000000000000000000000000000000000000000000
310
00F50000000000000000000000000000F5F5F5F5F5F5F5F5F5F5F5F5F5F5F5F5F5F5F5F5F5F5F5F5F5F5F5F5F5F5F5F5F5F5F5F5F5F5F5F5F5F5F5F5F5F5F5F5F5F5F5F5F5F5F5F5F5F5F5F5F5F5F5F5F5F50000000000000000000000000000F5000000000000000000000000000000000000000000000000000000000000
310
00000000000000000000000000000000000000000000000000000000000000000000000000000000000000000000000000000000000000000000000000000000000000000000000000000000000000000000000000000000000000000000000000000000000000000000000000000000000000000000000000000000000000
310
000000F500000000000000000000000000000000000000000000000000000000000000000000000000000000000000000000000000000000000000000000000000000000000000000000000000000000000000000000000000000000000000000000F500000000000000000000000000000000000000000000000000000000
310
00000000000000000000000000000000000000000000000000000000000000000000000000000000000000000000000000000000000000000000000000000000000000000000000000000000000000000000000000000000000000000000000000000000000000000000000000000000000000000000000000000000000000
310
0000000000F500000000000000000000000000000000000000000000000000000000000000000000000000000000000000000000000000000000000000000000000000000000000000000000000000000000000000000000000000000000000000000000F50000000000000000000000000000000000000000000000000000
310
00000000000000000000000000000000000000000000000000000000000000000000000000000000000000000000000000000000000000000000000000000000000000000000000000000000000000000000000000000000000000000000000000000000000000000000000000000000000000000000000000000000000000
310
00000000000000F500000000000000000000000000000000000000000000000000000000000000F5F5F5F5F5F5F5F5F5F5F500000000000000000000000000000000000000000000000000000000000000000000000000000000000000000000000000000000F5000000000000000000000000000000000000000000000000
310
00000000000000000000000000000000000000000000000000000000000000000000000000000000000000000000000000000000000000000000000000000000000000000000000000000000000000000000000000000000000000000000000000000000000000000000000000000000000000000000000000000000000000
310
000000000000000000F5000000000000000000000000000000000000000000000000000000000000F5F5F5F5F5F5F5F5F5F5F5F5F5F5F5F5F5F5F5F50000000000000000000000000000000000000000000000000000000000000000000000000000000000000000F500000000000000000000000000000000000000000000
310
00000000000000000000000000000000000000000000000000000000000000000000000000000000000000000000000000000000000000000000000000000000000000000000000000000000000000000000000000000000000000000000000000000000000000000000000000000000000000000000000000000000000000
310
0000000000000000000000F5000000000000000000000000000000000000000000000000000000000000F5F5F5F5F5F5F5F5F5F5F5F5F5F5F5F5F5F5F5F5F5F5F5F5F5F50000000000000000000000000000000000000000000000000000000000000000000000000000F50000000000000000000000000000000000000000
310
00000000000000000000000000000000000000000000000000000000000000000000000000000000000000000000000000000000000000000000000000000000000000000000000000000000000000000000000000000000000000000000000000000000000000000000000000000000000000000000000000000000000000
310
0000000000000000000000000000F500000000000000000000000000000000000000000000000000000000F500F5F5F5F5F5F5F5F5F5F5F5F5F5F5F5F5F5F5F5F5F5F5F5F5F50000000000000000000000000000000000000000000000000000000000000000000000000000F5000000000000000000000000000000000000
310
00000000000000000000000000000000000000000000000000000000000000000000000000000000000000000000000000000000000000000000000000000000000000000000000000000000000000000000000000000000000000000000000000000000000000000000000000000000000000000000000000000000000000
310
00000000000000000000000000000000F500000000000000000000000000000000000000000000000000000000F5000000000000000000000000000000000000000000000000000000000000000000000000000000000000000000000000000000000000000000000000000000F50000000000000000000000000000000000
310
00000000000000000000000000000000000000000000000000000000000000000000000000000000000000000000000000000000000000000000000000000000000000000000000000000000000000000000000000000000000000000000000000000000000000000000000000000000000000000000000000000000000000
310
000000000000000000000000000000000000F50000000000000000000000000000000000000000000000000000F5F500000000000000000000000000000000000000000000000000000000000000000000000000000000000000000000000000000000000000000000000000000000F5000000000000000000000000000000
310
00000000000000000000000000000000000000000000000000000000000000000000000000000000000000000000000000000000000000000000000000000000000000000000000000000000000000000000000000000000000000000000000000000000000000000000000000000000000000000000000000000000000000
310
000000000000000000000000000000000000000000F5F5000000000000000000000000000000000000000000000000F5F5000000000000000000000000000000000000000000000000000000000000000000000000000000000000000000000000000000000000000000000000000000F50000000000000000000000000000
310
00000000000000000000000000000000000000000000000000000000000000000000000000000000000000000000000000000000000000000000000000000000000000000000000000000000000000000000000000000000000000000000000000000000000000000000000000000000000000000000000000000000000000
310
00000000000000000000000000000000000000000000000000F5F5F5F5F5F5F5F5F5F5F5F5F5F5F5F5F5F5F5F5F5F5F5F5F5F5F5F5F5F5F5F5F5F5F5F5F5F5F5F5F5F5F5F5F5F5F5F5F5F5F5F5F5F5F5F5F5F5F5F5F5F5F5F5F5F5F5F5F5F5F5F5F5F5F5F5F5F5F5F5F5F5F5F5F5F5F5F5F500000000000000000000000000
310
00000000000000000000000000000000000000000000000000000000000000000000000000000000000000000000000000000000000000000000000000000000000000000000000000000000000000000000000000000000000000000000000000000000000000000000000000000000000000000000000000000000000000
310
00000000000000000000000000000000000000000000000000000000000000000000000000000000000000000000000000000000000000000000000000000000000000000000000000000000000000000000000000000000000000000000000000000000000000000000000000000000000000000000000000000000000000
310
00000000000000000000000000000000000000000000000000000000000000000000000000000000000000000000000000000000000000000000000000000000000000000000000000000000000000000000000000000000000000000000000000000000000000000000000000000000000000000000000000000000000000
310
00000000000000000000000000000000000000000000000000000000000000000000000000000000000000000000000000000000000000000000000000000000000000000000000000000000000000000000000000000000000000000000000000000000000000000000000000000000000000000000000000000000000000
310
00000000000000000000000000000000000000000000000000000000000000000000000000000000000000000000000000000000000000000000000000000000000000000000000000000000000000000000000000000000000000000000000000000000000000000000000000000000000000000000000000000000000000
310
00000000000000000000000000000000000000000000000000000000000000000000000000000000000000000000000000000000000000000000000000000000000000000000000000000000000000000000000000000000000000000000000000000000000000000000000000000000000000000000000000000000000000
310
00000000000000000000000000000000000000000000000000000000000000000000000000000000000000000000000000000000000000000000000000000000000000000000000000000000000000000000000000000000000000000000000000000000000000000000000000000000000000000000000000000000000000
310
00000000000000000000000000000000000000000000000000000000000000000000000000000000000000000000000000000000000000000000000000000000000000000000000000000000000000000000000000000000000000000000000000000000000000000000000000000000000000000000000000000000000000
310
00000000000000000000000000000000000000000000000000000000000000000000000000000000000000000000000000000000000000000000000000000000000000000000000000000000000000000000000000000000000000000000000000000000000000000000000000000000000000000000000000000000000000
310
00000000000000000000000000000000000000000000000000000000000000000000000000000000000000000000000000000000000000000000000000000000000000000000000000000000000000000000000000000000000000000000000000000000000000000000000000000000000000000000000000000000000000
310
00000000000000000000000000000000000000000000000000000000000000000000000000000000000000000000000000000000000000000000000000000000000000000000000000000000000000000000000000000000000000000000000000000000000000000000000000000000000000000000000000000000000000
310
00000000000000000000000000000000000000000000000000000000000000000000000000000000000000000000000000000000000000000000000000000000000000000000000000000000000000000000000000000000000000000000000000000000000000000000000000000000000000000000000000000000000000
310
00000000000000000000000000000000000000000000000000000000000000000000000000000000000000000000000000000000000000000000000000000000000000000000000000000000000000000000000000000000000000000000000000000000000000000000000000000000000000000000000000000000000000
310
00000000000000000000000000000000000000000000000000000000000000000000000000000000000000000000000000000000000000000000000000000000000000000000000000000000000000000000000000000000000000000000000000000000000000000000000000000000000000000000000000000000000000
310
00000000000000000000000000000000000000000000000000000000000000000000000000000000000000000000000000000000000000000000000000000000000000000000000000000000000000000000000000000000000000000000000000000000000000000000000000000000000000000000000000000000000000
310
00000000000000000000000000000000000000000000000000000000000000000000000000000000000000000000000000000000000000000000000000000000000000000000000000000000000000000000000000000000000000000000000000000000000000000000000000000000000000000000000000000000000000
310
00000000000000000000000000000000000000000000000000000000000000000000000000000000000000000000000000000000000000000000000000000000000000000000000000000000000000000000000000000000000000000000000000000000000000000000000000000000000000000000000000000000000000
310
00000000000000000000000000000000000000000000000000000000000000000000000000000000000000000000000000000000000000000000000000000000000000000000000000000000000000000000000000000000000000000000000000000000000000000000000000000000000000000000000000000000000000
310
00000000000000000000000000000000000000000000000000000000000000000000000000000000000000000000000000000000000000000000000000000000000000000000000000000000000000000000000000000000000000000000000000000000000000000000000000000000000000000000000000000000000000
310
00000000000000000000000000000000000000000000000000000000000000000000000000000000000000000000000000000000000000000000000000000000000000000000000000000000000000000000000000000000000000000000000000000000000000000000000000000000000000000000000000000000000000
310
00000000000000000000000000000000000000000000000000000000000000000000000000000000000000000000000000000000000000000000000000000000000000000000000000000000000000000000000000000000000000000000000000000000000000000000000000000000000000000000000000000000000000
310
00000000000000000000000000000000000000000000000000000000000000000000000000000000000000000000000000000000000000000000000000000000000000000000000000000000000000000000000000000000000000000000000000000000000000000000000000000000000000000000000000000000000000
310
00000000000000000000000000000000000000000000000000000000000000000000000000000000000000000000000000000000000000000000000000000000000000000000000000000000000000000000000000000000000000000000000000000000000000000000000000000000000000000000000000000000000000
310
00000000000000000000000000000000000000000000000000000000000000000000000000000000000000000000000000000000000000000000000000000000000000000000000000000000000000000000000000000000000000000000000000000000000000000000000000000000000000000000000000000000000000
310
00000000000000000000000000000000000000000000000000000000000000000000000000000000000000000000000000000000000000000000000000000000000000000000000000000000000000000000000000000000000000000000000000000000000000000000000000000000000000000000000000000000000000
310
00000000000000000000000000000000000000000000000000000000000000000000000000000000000000000000000000000000000000000000000000000000000000000000000000000000000000000000000000000000000000000000000000000000000000000000000000000000000000000000000000000000000000
310
00000000000000000000000000000000000000000000000000000000000000000000000000000000000000000000000000000000000000000000000000000000000000000000000000000000000000000000000000000000000000000000000000000000000000000000000000000000000000000000000000000000000000
310
00000000000000000000000000000000000000000000000000000000000000000000000000000000000000000000000000000000000000000000000000000000000000000000000000000000000000000000000000000000000000000000000000000000000000000000000000000000000000000000000000000000000000
310
00000000000000000000000000000000000000000000000000000000000000000000000000000000000000000000000000000000000000000000000000000000000000000000000000000000000000000000000000000000000000000000000000000000000000000000000000000000000000000000000000000000000000
310
00000000000000000000000000000000000000000000000000000000000000000000000000000000000000000000000000000000000000000000000000000000000000000000000000000000000000000000000000000000000000000000000000000000000000000000000000000000000000000000000000000000000000
310
00000000000000000000000000000000000000000000000000000000000000000000000000000000000000000000000000000000000000000000000000000000000000000000000000000000000000000000000000000000000000000000000000000000000000000000000000000000000000000000000000000000000000
310
00000000000000000000000000000000000000000000000000000000000000000000000000000000000000000000000000000000000000000000000000000000000000000000000000000000000000000000000000000000000000000000000000000000000000000000000000000000000000000000000000000000000000
310
00000000000000000000000000000000000000000000000000000000000000000000000000000000000000000000000000000000000000000000000000000000000000000000000000000000000000000000000000000000000000000000000000000000000000000000000000000000000000000000000000000000000000
310
00000000000000000000000000000000000000000000000000000000000000000000000000000000000000000000000000000000000000000000000000000000000000000000000000000000000000000000000000000000000000000000000000000000000000000000000000000000000000000000000000000000000000
310
00000000000000000000000000000000000000000000000000000000000000000000000000000000000000000000000000000000000000000000000000000000000000000000000000000000000000000000000000000000000000000000000000000000000000000000000000000000000000000000000000000000000000
310
00000000000000000000000000000000000000000000000000000000000000000000000000000000000000000000000000000000000000000000000000000000000000000000000000000000000000000000000000000000000000000000000000000000000000000000000000000000000000000000000000000000000000
310
00000000000000000000000000000000000000000000000000000000000000000000000000000000000000000000000000000000000000000000000000000000000000000000000000000000000000000000000000000000000000000000000000000000000000000000000000000000000000000000000000000000000000
310
00000000000000000000000000000000000000000000000000000000000000000000000000000000000000000000000000000000000000000000000000000000000000000000000000000000000000000000000000000000000000000000000000000000000000000000000000000000000000000000000000000000000000
310
00000000000000000000000000000000000000000000000000000000000000000000000000000000000000000000000000000000000000000000000000000000000000000000000000000000000000000000000000000000000000000000000000000000000000000000000000000000000000000000000000000000000000
310
00000000000000000000000000000000000000000000000000000000000000000000000000000000000000000000000000000000000000000000000000000000000000000000000000000000000000000000000000000000000000000000000000000000000000000000000000000000000000000000000000000000000000
310
00000000000000000000000000000000000000000000000000000000000000000000000000000000000000000000000000000000000000000000000000000000000000000000000000000000000000000000000000000000000000000000000000000000000000000000000000000000000000000000000000000000000000
310
00000000000000000000000000000000000000000000000000000000000000000000000000000000000000000000000000000000000000000000000000000000000000000000000000000000000000000000000000000000000000000000000000000000000000000000000000000000000000000000000000000000000000
310
00000000000000000000000000000000000000000000000000000000000000000000000000000000000000000000000000000000000000000000000000000000000000000000000000000000000000000000000000000000000000000000000000000000000000000000000000000000000000000000000000000000000000
310
000000000000000000000000000000000000
  0
XRECORD
  5
1515
102
{ACAD_REACTORS
330
D4F
102
}
330
D4F
100
AcDbXrecord
280
     1
102
MATERIAL
148
0.0
149
0.0
149
0.0
 93
        0
 94
      127
282
     0
 72
     0
 77
     0
171
     0
175
     0
179
     0
273
     0
  0
XRECORD
  5
D51
102
{ACAD_REACTORS
330
D4F
102
}
330
D4F
100
AcDbXrecord
280
     1
270
     1
271
     1
  0
XRECORD
  5
D50
102
{ACAD_REACTORS
330
D4F
102
}
330
D4F
100
AcDbXrecord
280
     1
270
     1
271
     1
  0
XRECORD
  5
D54
102
{ACAD_REACTORS
330
D4F
102
}
330
D4F
100
AcDbXrecord
280
     1
270
     1
271
     1
  0
XRECORD
  5
D53
102
{ACAD_REACTORS
330
D4F
102
}
330
D4F
100
AcDbXrecord
280
     1
270
     1
271
     1
  0
XRECORD
  5
D55
102
{ACAD_REACTORS
330
D4F
102
}
330
D4F
100
AcDbXrecord
280
     1
270
     1
271
     1
  0
XRECORD
  5
D52
102
{ACAD_REACTORS
330
D4F
102
}
330
D4F
100
AcDbXrecord
280
     1
270
     1
271
     1
  0
XRECORD
  5
1514
102
{ACAD_REACTORS
330
D47
102
}
330
D47
100
AcDbXrecord
280
     1
102
MATERIAL
148
0.0
149
0.0
149
0.0
 93
        0
 94
      127
282
     0
 72
     0
 77
     0
171
     0
175
     0
179
     0
273
     0
  0
XRECORD
  5
D49
102
{ACAD_REACTORS
330
D47
102
}
330
D47
100
AcDbXrecord
280
     1
270
     1
271
     1
  0
XRECORD
  5
D48
102
{ACAD_REACTORS
330
D47
102
}
330
D47
100
AcDbXrecord
280
     1
270
     1
271
     1
  0
XRECORD
  5
D4C
102
{ACAD_REACTORS
330
D47
102
}
330
D47
100
AcDbXrecord
280
     1
270
     1
271
     1
  0
XRECORD
  5
D4B
102
{ACAD_REACTORS
330
D47
102
}
330
D47
100
AcDbXrecord
280
     1
270
     1
271
     1
  0
XRECORD
  5
D4D
102
{ACAD_REACTORS
330
D47
102
}
330
D47
100
AcDbXrecord
280
     1
270
     1
271
     1
  0
XRECORD
  5
D4A
102
{ACAD_REACTORS
330
D47
102
}
330
D47
100
AcDbXrecord
280
     1
270
     1
271
     1
  0
XRECORD
  5
1516
102
{ACAD_REACTORS
330
D57
102
}
330
D57
100
AcDbXrecord
280
     1
102
MATERIAL
148
0.0
149
0.0
149
0.0
 93
        0
 94
      127
282
     0
 72
     0
 77
     0
171
     0
175
     0
179
     0
273
     0
  0
XRECORD
  5
D59
102
{ACAD_REACTORS
330
D57
102
}
330
D57
100
AcDbXrecord
280
     1
270
     1
271
     1
  0
XRECORD
  5
D58
102
{ACAD_REACTORS
330
D57
102
}
330
D57
100
AcDbXrecord
280
     1
270
     1
271
     1
  0
XRECORD
  5
D5C
102
{ACAD_REACTORS
330
D57
102
}
330
D57
100
AcDbXrecord
280
     1
270
     1
271
     1
  0
XRECORD
  5
D5B
102
{ACAD_REACTORS
330
D57
102
}
330
D57
100
AcDbXrecord
280
     1
270
     1
271
     1
  0
XRECORD
  5
D5D
102
{ACAD_REACTORS
330
D57
102
}
330
D57
100
AcDbXrecord
280
     1
270
     1
271
     1
  0
XRECORD
  5
D5A
102
{ACAD_REACTORS
330
D57
102
}
330
D57
100
AcDbXrecord
280
     1
270
     1
271
     1
  0
CELLSTYLEMAP
  5
150D
102
{ACAD_REACTORS
330
12A8
102
}
330
12A8
100
AcDbCellStyleMap
 90
        3
300
CELLSTYLE
  1
TABLEFORMAT_BEGIN
 90
        5
170
     1
 91
        0
 92
    32768
 62
   257
 93
        1
300
CONTENTFORMAT
  1
CONTENTFORMAT_BEGIN
 90
        0
 91
        0
 92
        4
 93
        0
300

 40
0.0
140
1.0
 94
        5
 62
     0
340
11
144
0.25
309
CONTENTFORMAT_END
171
     0
 94
        6
 95
        1
302
GRIDFORMAT
  1
GRIDFORMAT_BEGIN
 90
        0
 91
        1
 62
     0
 92
       -2
340
0
 93
        0
 40
0.045
309
GRIDFORMAT_END
 95
        2
302
GRIDFORMAT
  1
GRIDFORMAT_BEGIN
 90
        0
 91
        1
 62
     0
 92
       -2
340
0
 93
        0
 40
0.045
309
GRIDFORMAT_END
 95
        4
302
GRIDFORMAT
  1
GRIDFORMAT_BEGIN
 90
        0
 91
        1
 62
     0
 92
       -2
340
0
 93
        0
 40
0.045
309
GRIDFORMAT_END
 95
        8
302
GRIDFORMAT
  1
GRIDFORMAT_BEGIN
 90
        0
 91
        1
 62
     0
 92
       -2
340
0
 93
        0
 40
0.045
309
GRIDFORMAT_END
 95
       16
302
GRIDFORMAT
  1
GRIDFORMAT_BEGIN
 90
        0
 91
        1
 62
     0
 92
       -2
340
0
 93
        0
 40
0.045
309
GRIDFORMAT_END
 95
       32
302
GRIDFORMAT
  1
GRIDFORMAT_BEGIN
 90
        0
 91
        1
 62
     0
 92
       -2
340
0
 93
        0
 40
0.045
309
GRIDFORMAT_END
309
TABLEFORMAT_END
  1
CELLSTYLE_BEGIN
 90
        1
 91
        1
300
_TITLE
309
CELLSTYLE_END
300
CELLSTYLE
  1
TABLEFORMAT_BEGIN
 90
        5
170
     1
 91
        0
 92
        0
 62
   257
 93
        1
300
CONTENTFORMAT
  1
CONTENTFORMAT_BEGIN
 90
        0
 91
        0
 92
        4
 93
        0
300

 40
0.0
140
1.0
 94
        5
 62
     0
340
11
144
0.18
309
CONTENTFORMAT_END
171
     0
 94
        6
 95
        1
302
GRIDFORMAT
  1
GRIDFORMAT_BEGIN
 90
        0
 91
        1
 62
     0
 92
       -2
340
0
 93
        0
 40
0.045
309
GRIDFORMAT_END
 95
        2
302
GRIDFORMAT
  1
GRIDFORMAT_BEGIN
 90
        0
 91
        1
 62
     0
 92
       -2
340
0
 93
        0
 40
0.045
309
GRIDFORMAT_END
 95
        4
302
GRIDFORMAT
  1
GRIDFORMAT_BEGIN
 90
        0
 91
        1
 62
     0
 92
       -2
340
0
 93
        0
 40
0.045
309
GRIDFORMAT_END
 95
        8
302
GRIDFORMAT
  1
GRIDFORMAT_BEGIN
 90
        0
 91
        1
 62
     0
 92
       -2
340
0
 93
        0
 40
0.045
309
GRIDFORMAT_END
 95
       16
302
GRIDFORMAT
  1
GRIDFORMAT_BEGIN
 90
        0
 91
        1
 62
     0
 92
       -2
340
0
 93
        0
 40
0.045
309
GRIDFORMAT_END
 95
       32
302
GRIDFORMAT
  1
GRIDFORMAT_BEGIN
 90
        0
 91
        1
 62
     0
 92
       -2
340
0
 93
        0
 40
0.045
309
GRIDFORMAT_END
309
TABLEFORMAT_END
  1
CELLSTYLE_BEGIN
 90
        2
 91
        1
300
_HEADER
309
CELLSTYLE_END
300
CELLSTYLE
  1
TABLEFORMAT_BEGIN
 90
        5
170
     1
 91
        0
 92
        0
 62
   257
 93
        1
300
CONTENTFORMAT
  1
CONTENTFORMAT_BEGIN
 90
        0
 91
        0
 92
        4
 93
        0
300

 40
0.0
140
1.0
 94
        2
 62
     0
340
11
144
0.18
309
CONTENTFORMAT_END
171
     0
 94
        6
 95
        1
302
GRIDFORMAT
  1
GRIDFORMAT_BEGIN
 90
        0
 91
        1
 62
     0
 92
       -2
340
0
 93
        0
 40
0.045
309
GRIDFORMAT_END
 95
        2
302
GRIDFORMAT
  1
GRIDFORMAT_BEGIN
 90
        0
 91
        1
 62
     0
 92
       -2
340
0
 93
        0
 40
0.045
309
GRIDFORMAT_END
 95
        4
302
GRIDFORMAT
  1
GRIDFORMAT_BEGIN
 90
        0
 91
        1
 62
     0
 92
       -2
340
0
 93
        0
 40
0.045
309
GRIDFORMAT_END
 95
        8
302
GRIDFORMAT
  1
GRIDFORMAT_BEGIN
 90
        0
 91
        1
 62
     0
 92
       -2
340
0
 93
        0
 40
0.045
309
GRIDFORMAT_END
 95
       16
302
GRIDFORMAT
  1
GRIDFORMAT_BEGIN
 90
        0
 91
        1
 62
     0
 92
       -2
340
0
 93
        0
 40
0.045
309
GRIDFORMAT_END
 95
       32
302
GRIDFORMAT
  1
GRIDFORMAT_BEGIN
 90
        0
 91
        1
 62
     0
 92
       -2
340
0
 93
        0
 40
0.045
309
GRIDFORMAT_END
309
TABLEFORMAT_END
  1
CELLSTYLE_BEGIN
 90
        3
 91
        2
300
_DATA
309
CELLSTYLE_END
  0
XRECORD
  5
1510
102
{ACAD_REACTORS
330
12A8
102
}
330
12A8
100
AcDbXrecord
280
     1
102
ACAD_ROUNDTRIP_PRE2007_TABLESTYLE
 90
        4
 91
        0
  1

 92
        4
 93
        0
  2

 94
        4
 95
        0
  3

  0
XRECORD
  5
1522
102
{ACAD_REACTORS
330
1521
102
}
330
1521
100
AcDbXrecord
280
     1
102
RTVSPropertyOp0
 70
     1
102
RTVSPropertyOp1
 70
     1
102
RTVSPropertyOp2
 70
     1
102
RTVSPropertyOp3
 70
     1
102
RTVSPropertyOp4
 70
     1
102
RTVSPropertyOp5
 70
     1
102
RTVSPropertyOp6
 70
     1
102
RTVSPropertyOp7
 70
     1
102
RTVSPropertyOp8
 70
     1
102
RTVSPropertyOp9
 70
     1
102
RTVSPropertyOp10
 70
     1
102
RTVSPropertyOp11
 70
     1
102
RTVSPropertyOp12
 70
     1
102
RTVSPropertyOp13
 70
     1
102
RTVSPropertyOp14
 70
     1
102
RTVSPropertyOp15
 70
     1
102
RTVSPropertyOp16
 70
     1
102
RTVSPropertyOp17
 70
     1
102
RTVSPropertyOp18
 70
     1
102
RTVSPropertyOp19
 70
     1
102
RTVSPropertyOp20
 70
     1
102
RTVSPropertyOp21
 70
     1
102
RTVSPropertyOp22
 70
     1
102
RTVSPropertyOp23
 70
     1
102
RTVSPropertyOp24
 70
     1
102
RTVSPropertyOp25
 70
     1
102
RTVSPropertyOp26
 70
     1
102
RTVSPropertyOp27
 70
     1
102
RTVSPropertyOp28
 70
     1
102
RTVSPropertyOp29
 70
     1
102
RTVSPropertyOp30
 70
     1
102
RTVSPropertyOp31
 70
     1
102
RTVSPropertyOp32
 70
     1
  0
XRECORD
  5
1526
102
{ACAD_REACTORS
330
1525
102
}
330
1525
100
AcDbXrecord
280
     1
102
RTVSPropertyOp0
 70
     1
102
RTVSPropertyOp1
 70
     1
102
RTVSPropertyOp2
 70
     1
102
RTVSPropertyOp3
 70
     1
102
RTVSPropertyOp4
 70
     1
102
RTVSPropertyOp5
 70
     1
102
RTVSPropertyOp6
 70
     1
102
RTVSPropertyOp7
 70
     1
102
RTVSPropertyOp8
 70
     1
102
RTVSPropertyOp9
 70
     1
102
RTVSPropertyOp10
 70
     1
102
RTVSPropertyOp11
 70
     1
102
RTVSPropertyOp12
 70
     1
102
RTVSPropertyOp13
 70
     1
102
RTVSPropertyOp14
 70
     1
102
RTVSPropertyOp15
 70
     1
102
RTVSPropertyOp16
 70
     1
102
RTVSPropertyOp17
 70
     1
102
RTVSPropertyOp18
 70
     1
102
RTVSPropertyOp19
 70
     1
102
RTVSPropertyOp20
 70
     1
102
RTVSPropertyOp21
 70
     1
102
RTVSPropertyOp22
 70
     1
102
RTVSPropertyOp23
 70
     1
102
RTVSPropertyOp24
 70
     1
102
RTVSPropertyOp25
 70
     1
102
RTVSPropertyOp26
 70
     1
102
RTVSPropertyOp27
 70
     1
102
RTVSPropertyOp28
 70
     1
102
RTVSPropertyOp29
 70
     1
102
RTVSPropertyOp30
 70
     1
102
RTVSPropertyOp31
 70
     1
102
RTVSPropertyOp32
 70
     1
  0
XRECORD
  5
1524
102
{ACAD_REACTORS
330
1523
102
}
330
1523
100
AcDbXrecord
280
     1
102
RTVSPropertyOp0
 70
     1
102
RTVSPropertyOp1
 70
     1
102
RTVSPropertyOp2
 70
     1
102
RTVSPropertyOp3
 70
     1
102
RTVSPropertyOp4
 70
     1
102
RTVSPropertyOp5
 70
     1
102
RTVSPropertyOp6
 70
     1
102
RTVSPropertyOp7
 70
     1
102
RTVSPropertyOp8
 70
     1
102
RTVSPropertyOp9
 70
     1
102
RTVSPropertyOp10
 70
     1
102
RTVSPropertyOp11
 70
     1
102
RTVSPropertyOp12
 70
     1
102
RTVSPropertyOp13
 70
     1
102
RTVSPropertyOp14
 70
     1
102
RTVSPropertyOp15
 70
     1
102
RTVSPropertyOp16
 70
     1
102
RTVSPropertyOp17
 70
     1
102
RTVSPropertyOp18
 70
     1
102
RTVSPropertyOp19
 70
     1
102
RTVSPropertyOp20
 70
     1
102
RTVSPropertyOp21
 70
     1
102
RTVSPropertyOp22
 70
     1
102
RTVSPropertyOp23
 70
     1
102
RTVSPropertyOp24
 70
     1
102
RTVSPropertyOp25
 70
     1
102
RTVSPropertyOp26
 70
     1
102
RTVSPropertyOp27
 70
     1
102
RTVSPropertyOp28
 70
     1
102
RTVSPropertyOp29
 70
     1
102
RTVSPropertyOp30
 70
     1
102
RTVSPropertyOp31
 70
     1
102
RTVSPropertyOp32
 70
     1
  0
XRECORD
  5
1520
102
{ACAD_REACTORS
330
151F
102
}
330
151F
100
AcDbXrecord
280
     1
102
RTVSPropertyOp0
 70
     1
102
RTVSPropertyOp1
 70
     1
102
RTVSPropertyOp2
 70
     1
102
RTVSPropertyOp3
 70
     1
102
RTVSPropertyOp4
 70
     1
102
RTVSPropertyOp5
 70
     1
102
RTVSPropertyOp6
 70
     1
102
RTVSPropertyOp7
 70
     1
102
RTVSPropertyOp8
 70
     1
102
RTVSPropertyOp9
 70
     1
102
RTVSPropertyOp10
 70
     1
102
RTVSPropertyOp11
 70
     1
102
RTVSPropertyOp12
 70
     1
102
RTVSPropertyOp13
 70
     1
102
RTVSPropertyOp14
 70
     1
102
RTVSPropertyOp15
 70
     1
102
RTVSPropertyOp16
 70
     1
102
RTVSPropertyOp17
 70
     1
102
RTVSPropertyOp18
 70
     1
102
RTVSPropertyOp19
 70
     1
102
RTVSPropertyOp20
 70
     1
102
RTVSPropertyOp21
 70
     1
102
RTVSPropertyOp22
 70
     1
102
RTVSPropertyOp23
 70
     1
102
RTVSPropertyOp24
 70
     1
102
RTVSPropertyOp25
 70
     1
102
RTVSPropertyOp26
 70
     1
102
RTVSPropertyOp27
 70
     1
102
RTVSPropertyOp28
 70
     1
102
RTVSPropertyOp29
 70
     1
102
RTVSPropertyOp30
 70
     1
102
RTVSPropertyOp31
 70
     1
102
RTVSPropertyOp32
 70
     1
  0
XRECORD
  5
152E
102
{ACAD_REACTORS
330
152D
102
}
330
152D
100
AcDbXrecord
280
     1
102
RTVSPropertyOp0
 70
     1
102
RTVSPropertyOp1
 70
     1
102
RTVSPropertyOp2
 70
     1
102
RTVSPropertyOp3
 70
     1
102
RTVSPropertyOp4
 70
     1
102
RTVSPropertyOp5
 70
     1
102
RTVSPropertyOp6
 70
     1
102
RTVSPropertyOp7
 70
     1
102
RTVSPropertyOp8
 70
     1
102
RTVSPropertyOp9
 70
     1
102
RTVSPropertyOp10
 70
     1
102
RTVSPropertyOp11
 70
     1
102
RTVSPropertyOp12
 70
     1
102
RTVSPropertyOp13
 70
     1
102
RTVSPropertyOp14
 70
     1
102
RTVSPropertyOp15
 70
     1
102
RTVSPropertyOp16
 70
     1
102
RTVSPropertyOp17
 70
     1
102
RTVSPropertyOp18
 70
     1
102
RTVSPropertyOp19
 70
     1
102
RTVSPropertyOp20
 70
     1
102
RTVSPropertyOp21
 70
     1
102
RTVSPropertyOp22
 70
     1
102
RTVSPropertyOp23
 70
     1
102
RTVSPropertyOp24
 70
     1
102
RTVSPropertyOp25
 70
     1
102
RTVSPropertyOp26
 70
     1
102
RTVSPropertyOp27
 70
     1
102
RTVSPropertyOp28
 70
     1
102
RTVSPropertyOp29
 70
     1
102
RTVSPropertyOp30
 70
     1
102
RTVSPropertyOp31
 70
     1
102
RTVSPropertyOp32
 70
     1
  0
XRECORD
  5
1536
102
{ACAD_REACTORS
330
1535
102
}
330
1535
100
AcDbXrecord
280
     1
102
RTVSPropertyOp0
 70
     1
102
RTVSPropertyOp1
 70
     1
102
RTVSPropertyOp2
 70
     1
102
RTVSPropertyOp3
 70
     1
102
RTVSPropertyOp4
 70
     1
102
RTVSPropertyOp5
 70
     1
102
RTVSPropertyOp6
 70
     1
102
RTVSPropertyOp7
 70
     1
102
RTVSPropertyOp8
 70
     1
102
RTVSPropertyOp9
 70
     1
102
RTVSPropertyOp10
 70
     1
102
RTVSPropertyOp11
 70
     1
102
RTVSPropertyOp12
 70
     1
102
RTVSPropertyOp13
 70
     1
102
RTVSPropertyOp14
 70
     1
102
RTVSPropertyOp15
 70
     1
102
RTVSPropertyOp16
 70
     1
102
RTVSPropertyOp17
 70
     1
102
RTVSPropertyOp18
 70
     1
102
RTVSPropertyOp19
 70
     1
102
RTVSPropertyOp20
 70
     1
102
RTVSPropertyOp21
 70
     1
102
RTVSPropertyOp22
 70
     1
102
RTVSPropertyOp23
 70
     1
102
RTVSPropertyOp24
 70
     1
102
RTVSPropertyOp25
 70
     1
102
RTVSPropertyOp26
 70
     1
102
RTVSPropertyOp27
 70
     1
102
RTVSPropertyOp28
 70
     1
102
RTVSPropertyOp29
 70
     1
102
RTVSPropertyOp30
 70
     1
102
RTVSPropertyOp31
 70
     1
102
RTVSPropertyOp32
 70
     1
  0
XRECORD
  5
1528
102
{ACAD_REACTORS
330
1527
102
}
330
1527
100
AcDbXrecord
280
     1
102
RTVSPropertyOp0
 70
     1
102
RTVSPropertyOp1
 70
     1
102
RTVSPropertyOp2
 70
     1
102
RTVSPropertyOp3
 70
     1
102
RTVSPropertyOp4
 70
     1
102
RTVSPropertyOp5
 70
     1
102
RTVSPropertyOp6
 70
     1
102
RTVSPropertyOp7
 70
     1
102
RTVSPropertyOp8
 70
     1
102
RTVSPropertyOp9
 70
     1
102
RTVSPropertyOp10
 70
     1
102
RTVSPropertyOp11
 70
     1
102
RTVSPropertyOp12
 70
     1
102
RTVSPropertyOp13
 70
     1
102
RTVSPropertyOp14
 70
     1
102
RTVSPropertyOp15
 70
     1
102
RTVSPropertyOp16
 70
     1
102
RTVSPropertyOp17
 70
     1
102
RTVSPropertyOp18
 70
     1
102
RTVSPropertyOp19
 70
     1
102
RTVSPropertyOp20
 70
     1
102
RTVSPropertyOp21
 70
     1
102
RTVSPropertyOp22
 70
     1
102
RTVSPropertyOp23
 70
     1
102
RTVSPropertyOp24
 70
     1
102
RTVSPropertyOp25
 70
     1
102
RTVSPropertyOp26
 70
     1
102
RTVSPropertyOp27
 70
     1
102
RTVSPropertyOp28
 70
     1
102
RTVSPropertyOp29
 70
     1
102
RTVSPropertyOp30
 70
     1
102
RTVSPropertyOp31
 70
     1
102
RTVSPropertyOp32
 70
     1
  0
XRECORD
  5
152C
102
{ACAD_REACTORS
330
152B
102
}
330
152B
100
AcDbXrecord
280
     1
102
RTVSPropertyOp0
 70
     1
102
RTVSPropertyOp1
 70
     1
102
RTVSPropertyOp2
 70
     1
102
RTVSPropertyOp3
 70
     1
102
RTVSPropertyOp4
 70
     1
102
RTVSPropertyOp5
 70
     1
102
RTVSPropertyOp6
 70
     1
102
RTVSPropertyOp7
 70
     1
102
RTVSPropertyOp8
 70
     1
102
RTVSPropertyOp9
 70
     1
102
RTVSPropertyOp10
 70
     1
102
RTVSPropertyOp11
 70
     1
102
RTVSPropertyOp12
 70
     1
102
RTVSPropertyOp13
 70
     1
102
RTVSPropertyOp14
 70
     1
102
RTVSPropertyOp15
 70
     1
102
RTVSPropertyOp16
 70
     1
102
RTVSPropertyOp17
 70
     1
102
RTVSPropertyOp18
 70
     1
102
RTVSPropertyOp19
 70
     1
102
RTVSPropertyOp20
 70
     1
102
RTVSPropertyOp21
 70
     1
102
RTVSPropertyOp22
 70
     1
102
RTVSPropertyOp23
 70
     1
102
RTVSPropertyOp24
 70
     1
102
RTVSPropertyOp25
 70
     1
102
RTVSPropertyOp26
 70
     1
102
RTVSPropertyOp27
 70
     1
102
RTVSPropertyOp28
 70
     1
102
RTVSPropertyOp29
 70
     1
102
RTVSPropertyOp30
 70
     1
102
RTVSPropertyOp31
 70
     1
102
RTVSPropertyOp32
 70
     1
  0
XRECORD
  5
153C
102
{ACAD_REACTORS
330
153B
102
}
330
153B
100
AcDbXrecord
280
     1
102
RTVSPropertyOp0
 70
     0
102
RTVSPropertyOp1
 70
     0
102
RTVSPropertyOp2
 70
     0
102
RTVSPropertyOp3
 70
     0
102
RTVSPropertyOp4
 70
     0
102
RTVSPropertyOp5
 70
     0
102
RTVSPropertyOp6
 70
     0
102
RTVSPropertyOp7
 70
     0
102
RTVSPropertyOp8
 70
     0
102
RTVSPropertyOp9
 70
     0
102
RTVSPropertyOp10
 70
     0
102
RTVSPropertyOp11
 70
     0
102
RTVSPropertyOp12
 70
     0
102
RTVSPropertyOp13
 70
     0
102
RTVSPropertyOp14
 70
     2
102
RTVSPropertyOp15
 70
     0
102
RTVSPropertyOp16
 70
     0
102
RTVSPropertyOp17
 70
     0
102
RTVSPropertyOp18
 70
     0
102
RTVSPropertyOp19
 70
     0
102
RTVSPropertyOp20
 70
     0
102
RTVSPropertyOp21
 70
     0
102
RTVSPropertyOp22
 70
     0
102
RTVSPropertyOp23
 70
     0
102
RTVSPropertyOp24
 70
     0
102
RTVSPropertyOp25
 70
     0
102
RTVSPropertyOp26
 70
     0
102
RTVSPropertyOp27
 70
     0
102
RTVSPropertyOp28
 70
     1
102
RTVSPropertyOp29
 70
     1
102
RTVSPropertyOp30
 70
     1
102
RTVSPropertyOp31
 70
     1
102
RTVSPropertyOp32
 70
     1
  0
XRECORD
  5
1534
102
{ACAD_REACTORS
330
1533
102
}
330
1533
100
AcDbXrecord
280
     1
102
RTVSPropertyOp0
 70
     1
102
RTVSPropertyOp1
 70
     1
102
RTVSPropertyOp2
 70
     1
102
RTVSPropertyOp3
 70
     1
102
RTVSPropertyOp4
 70
     1
102
RTVSPropertyOp5
 70
     1
102
RTVSPropertyOp6
 70
     1
102
RTVSPropertyOp7
 70
     1
102
RTVSPropertyOp8
 70
     1
102
RTVSPropertyOp9
 70
     1
102
RTVSPropertyOp10
 70
     1
102
RTVSPropertyOp11
 70
     1
102
RTVSPropertyOp12
 70
     1
102
RTVSPropertyOp13
 70
     1
102
RTVSPropertyOp14
 70
     1
102
RTVSPropertyOp15
 70
     1
102
RTVSPropertyOp16
 70
     1
102
RTVSPropertyOp17
 70
     1
102
RTVSPropertyOp18
 70
     1
102
RTVSPropertyOp19
 70
     1
102
RTVSPropertyOp20
 70
     1
102
RTVSPropertyOp21
 70
     1
102
RTVSPropertyOp22
 70
     1
102
RTVSPropertyOp23
 70
     1
102
RTVSPropertyOp24
 70
     1
102
RTVSPropertyOp25
 70
     1
102
RTVSPropertyOp26
 70
     1
102
RTVSPropertyOp27
 70
     1
102
RTVSPropertyOp28
 70
     1
102
RTVSPropertyOp29
 70
     1
102
RTVSPropertyOp30
 70
     1
102
RTVSPropertyOp31
 70
     1
102
RTVSPropertyOp32
 70
     1
  0
XRECORD
  5
1518
102
{ACAD_REACTORS
330
1517
102
}
330
1517
100
AcDbXrecord
280
     1
102
RTVSPropertyOp0
 70
     1
102
RTVSPropertyOp1
 70
     1
102
RTVSPropertyOp2
 70
     1
102
RTVSPropertyOp3
 70
     1
102
RTVSPropertyOp4
 70
     1
102
RTVSPropertyOp5
 70
     1
102
RTVSPropertyOp6
 70
     1
102
RTVSPropertyOp7
 70
     1
102
RTVSPropertyOp8
 70
     1
102
RTVSPropertyOp9
 70
     1
102
RTVSPropertyOp10
 70
     1
102
RTVSPropertyOp11
 70
     1
102
RTVSPropertyOp12
 70
     1
102
RTVSPropertyOp13
 70
     1
102
RTVSPropertyOp14
 70
     1
102
RTVSPropertyOp15
 70
     1
102
RTVSPropertyOp16
 70
     1
102
RTVSPropertyOp17
 70
     1
102
RTVSPropertyOp18
 70
     1
102
RTVSPropertyOp19
 70
     1
102
RTVSPropertyOp20
 70
     1
102
RTVSPropertyOp21
 70
     1
102
RTVSPropertyOp22
 70
     1
102
RTVSPropertyOp23
 70
     1
102
RTVSPropertyOp24
 70
     1
102
RTVSPropertyOp25
 70
     1
102
RTVSPropertyOp26
 70
     1
102
RTVSPropertyOp27
 70
     1
102
RTVSPropertyOp28
 70
     1
102
RTVSPropertyOp29
 70
     1
102
RTVSPropertyOp30
 70
     1
102
RTVSPropertyOp31
 70
     1
102
RTVSPropertyOp32
 70
     1
  0
XRECORD
  5
151A
102
{ACAD_REACTORS
330
1519
102
}
330
1519
100
AcDbXrecord
280
     1
102
RTVSPropertyOp0
 70
     1
102
RTVSPropertyOp1
 70
     1
102
RTVSPropertyOp2
 70
     1
102
RTVSPropertyOp3
 70
     1
102
RTVSPropertyOp4
 70
     1
102
RTVSPropertyOp5
 70
     1
102
RTVSPropertyOp6
 70
     1
102
RTVSPropertyOp7
 70
     1
102
RTVSPropertyOp8
 70
     1
102
RTVSPropertyOp9
 70
     1
102
RTVSPropertyOp10
 70
     1
102
RTVSPropertyOp11
 70
     1
102
RTVSPropertyOp12
 70
     1
102
RTVSPropertyOp13
 70
     1
102
RTVSPropertyOp14
 70
     1
102
RTVSPropertyOp15
 70
     1
102
RTVSPropertyOp16
 70
     1
102
RTVSPropertyOp17
 70
     1
102
RTVSPropertyOp18
 70
     1
102
RTVSPropertyOp19
 70
     1
102
RTVSPropertyOp20
 70
     1
102
RTVSPropertyOp21
 70
     1
102
RTVSPropertyOp22
 70
     1
102
RTVSPropertyOp23
 70
     1
102
RTVSPropertyOp24
 70
     1
102
RTVSPropertyOp25
 70
     1
102
RTVSPropertyOp26
 70
     1
102
RTVSPropertyOp27
 70
     1
102
RTVSPropertyOp28
 70
     1
102
RTVSPropertyOp29
 70
     1
102
RTVSPropertyOp30
 70
     1
102
RTVSPropertyOp31
 70
     1
102
RTVSPropertyOp32
 70
     1
  0
XRECORD
  5
151C
102
{ACAD_REACTORS
330
151B
102
}
330
151B
100
AcDbXrecord
280
     1
102
RTVSPropertyOp0
 70
     1
102
RTVSPropertyOp1
 70
     1
102
RTVSPropertyOp2
 70
     1
102
RTVSPropertyOp3
 70
     1
102
RTVSPropertyOp4
 70
     1
102
RTVSPropertyOp5
 70
     1
102
RTVSPropertyOp6
 70
     1
102
RTVSPropertyOp7
 70
     1
102
RTVSPropertyOp8
 70
     1
102
RTVSPropertyOp9
 70
     1
102
RTVSPropertyOp10
 70
     1
102
RTVSPropertyOp11
 70
     1
102
RTVSPropertyOp12
 70
     1
102
RTVSPropertyOp13
 70
     1
102
RTVSPropertyOp14
 70
     1
102
RTVSPropertyOp15
 70
     1
102
RTVSPropertyOp16
 70
     1
102
RTVSPropertyOp17
 70
     1
102
RTVSPropertyOp18
 70
     1
102
RTVSPropertyOp19
 70
     1
102
RTVSPropertyOp20
 70
     1
102
RTVSPropertyOp21
 70
     1
102
RTVSPropertyOp22
 70
     1
102
RTVSPropertyOp23
 70
     1
102
RTVSPropertyOp24
 70
     1
102
RTVSPropertyOp25
 70
     1
102
RTVSPropertyOp26
 70
     1
102
RTVSPropertyOp27
 70
     1
102
RTVSPropertyOp28
 70
     1
102
RTVSPropertyOp29
 70
     1
102
RTVSPropertyOp30
 70
     1
102
RTVSPropertyOp31
 70
     1
102
RTVSPropertyOp32
 70
     1
  0
XRECORD
  5
151E
102
{ACAD_REACTORS
330
151D
102
}
330
151D
100
AcDbXrecord
280
     1
102
RTVSPropertyOp0
 70
     1
102
RTVSPropertyOp1
 70
     1
102
RTVSPropertyOp2
 70
     1
102
RTVSPropertyOp3
 70
     1
102
RTVSPropertyOp4
 70
     1
102
RTVSPropertyOp5
 70
     1
102
RTVSPropertyOp6
 70
     1
102
RTVSPropertyOp7
 70
     1
102
RTVSPropertyOp8
 70
     1
102
RTVSPropertyOp9
 70
     1
102
RTVSPropertyOp10
 70
     1
102
RTVSPropertyOp11
 70
     1
102
RTVSPropertyOp12
 70
     1
102
RTVSPropertyOp13
 70
     1
102
RTVSPropertyOp14
 70
     1
102
RTVSPropertyOp15
 70
     1
102
RTVSPropertyOp16
 70
     1
102
RTVSPropertyOp17
 70
     1
102
RTVSPropertyOp18
 70
     1
102
RTVSPropertyOp19
 70
     1
102
RTVSPropertyOp20
 70
     1
102
RTVSPropertyOp21
 70
     1
102
RTVSPropertyOp22
 70
     1
102
RTVSPropertyOp23
 70
     1
102
RTVSPropertyOp24
 70
     1
102
RTVSPropertyOp25
 70
     1
102
RTVSPropertyOp26
 70
     1
102
RTVSPropertyOp27
 70
     1
102
RTVSPropertyOp28
 70
     1
102
RTVSPropertyOp29
 70
     1
102
RTVSPropertyOp30
 70
     1
102
RTVSPropertyOp31
 70
     1
102
RTVSPropertyOp32
 70
     1
  0
XRECORD
  5
1540
102
{ACAD_REACTORS
330
153F
102
}
330
153F
100
AcDbXrecord
280
     1
102
RTVSPropertyOp0
 70
     1
102
RTVSPropertyOp1
 70
     1
102
RTVSPropertyOp2
 70
     1
102
RTVSPropertyOp3
 70
     1
102
RTVSPropertyOp4
 70
     1
102
RTVSPropertyOp5
 70
     1
102
RTVSPropertyOp6
 70
     1
102
RTVSPropertyOp7
 70
     1
102
RTVSPropertyOp8
 70
     1
102
RTVSPropertyOp9
 70
     1
102
RTVSPropertyOp10
 70
     1
102
RTVSPropertyOp11
 70
     1
102
RTVSPropertyOp12
 70
     1
102
RTVSPropertyOp13
 70
     1
102
RTVSPropertyOp14
 70
     1
102
RTVSPropertyOp15
 70
     1
102
RTVSPropertyOp16
 70
     1
102
RTVSPropertyOp17
 70
     1
102
RTVSPropertyOp18
 70
     1
102
RTVSPropertyOp19
 70
     1
102
RTVSPropertyOp20
 70
     1
102
RTVSPropertyOp21
 70
     1
102
RTVSPropertyOp22
 70
     1
102
RTVSPropertyOp23
 70
     1
102
RTVSPropertyOp24
 70
     1
102
RTVSPropertyOp25
 70
     1
102
RTVSPropertyOp26
 70
     1
102
RTVSPropertyOp27
 70
     1
102
RTVSPropertyOp28
 70
     1
102
RTVSPropertyOp29
 70
     1
102
RTVSPropertyOp30
 70
     1
102
RTVSPropertyOp31
 70
     1
102
RTVSPropertyOp32
 70
     1
  0
XRECORD
  5
1538
102
{ACAD_REACTORS
330
1537
102
}
330
1537
100
AcDbXrecord
280
     1
102
RTVSPropertyOp0
 70
     0
102
RTVSPropertyOp1
 70
     0
102
RTVSPropertyOp2
 70
     0
102
RTVSPropertyOp3
 70
     0
102
RTVSPropertyOp4
 70
     0
102
RTVSPropertyOp5
 70
     0
102
RTVSPropertyOp6
 70
     0
102
RTVSPropertyOp7
 70
     0
102
RTVSPropertyOp8
 70
     0
102
RTVSPropertyOp9
 70
     0
102
RTVSPropertyOp10
 70
     0
102
RTVSPropertyOp11
 70
     0
102
RTVSPropertyOp12
 70
     0
102
RTVSPropertyOp13
 70
     0
102
RTVSPropertyOp14
 70
     2
102
RTVSPropertyOp15
 70
     0
102
RTVSPropertyOp16
 70
     0
102
RTVSPropertyOp17
 70
     0
102
RTVSPropertyOp18
 70
     0
102
RTVSPropertyOp19
 70
     0
102
RTVSPropertyOp20
 70
     0
102
RTVSPropertyOp21
 70
     0
102
RTVSPropertyOp22
 70
     0
102
RTVSPropertyOp23
 70
     0
102
RTVSPropertyOp24
 70
     0
102
RTVSPropertyOp25
 70
     0
102
RTVSPropertyOp26
 70
     0
102
RTVSPropertyOp27
 70
     0
102
RTVSPropertyOp28
 70
     1
102
RTVSPropertyOp29
 70
     1
102
RTVSPropertyOp30
 70
     1
102
RTVSPropertyOp31
 70
     1
102
RTVSPropertyOp32
 70
     1
  0
XRECORD
  5
1532
102
{ACAD_REACTORS
330
1531
102
}
330
1531
100
AcDbXrecord
280
     1
102
RTVSPropertyOp0
 70
     1
102
RTVSPropertyOp1
 70
     1
102
RTVSPropertyOp2
 70
     1
102
RTVSPropertyOp3
 70
     1
102
RTVSPropertyOp4
 70
     1
102
RTVSPropertyOp5
 70
     1
102
RTVSPropertyOp6
 70
     1
102
RTVSPropertyOp7
 70
     1
102
RTVSPropertyOp8
 70
     1
102
RTVSPropertyOp9
 70
     1
102
RTVSPropertyOp10
 70
     1
102
RTVSPropertyOp11
 70
     1
102
RTVSPropertyOp12
 70
     1
102
RTVSPropertyOp13
 70
     1
102
RTVSPropertyOp14
 70
     1
102
RTVSPropertyOp15
 70
     1
102
RTVSPropertyOp16
 70
     1
102
RTVSPropertyOp17
 70
     1
102
RTVSPropertyOp18
 70
     1
102
RTVSPropertyOp19
 70
     1
102
RTVSPropertyOp20
 70
     1
102
RTVSPropertyOp21
 70
     1
102
RTVSPropertyOp22
 70
     1
102
RTVSPropertyOp23
 70
     1
102
RTVSPropertyOp24
 70
     1
102
RTVSPropertyOp25
 70
     1
102
RTVSPropertyOp26
 70
     1
102
RTVSPropertyOp27
 70
     1
102
RTVSPropertyOp28
 70
     1
102
RTVSPropertyOp29
 70
     1
102
RTVSPropertyOp30
 70
     1
102
RTVSPropertyOp31
 70
     1
102
RTVSPropertyOp32
 70
     1
  0
XRECORD
  5
153A
102
{ACAD_REACTORS
330
1539
102
}
330
1539
100
AcDbXrecord
280
     1
102
RTVSPropertyOp0
 70
     0
102
RTVSPropertyOp1
 70
     0
102
RTVSPropertyOp2
 70
     0
102
RTVSPropertyOp3
 70
     0
102
RTVSPropertyOp4
 70
     0
102
RTVSPropertyOp5
 70
     0
102
RTVSPropertyOp6
 70
     0
102
RTVSPropertyOp7
 70
     0
102
RTVSPropertyOp8
 70
     0
102
RTVSPropertyOp9
 70
     0
102
RTVSPropertyOp10
 70
     0
102
RTVSPropertyOp11
 70
     0
102
RTVSPropertyOp12
 70
     0
102
RTVSPropertyOp13
 70
     0
102
RTVSPropertyOp14
 70
     2
102
RTVSPropertyOp15
 70
     0
102
RTVSPropertyOp16
 70
     0
102
RTVSPropertyOp17
 70
     0
102
RTVSPropertyOp18
 70
     0
102
RTVSPropertyOp19
 70
     0
102
RTVSPropertyOp20
 70
     0
102
RTVSPropertyOp21
 70
     0
102
RTVSPropertyOp22
 70
     0
102
RTVSPropertyOp23
 70
     0
102
RTVSPropertyOp24
 70
     0
102
RTVSPropertyOp25
 70
     0
102
RTVSPropertyOp26
 70
     0
102
RTVSPropertyOp27
 70
     0
102
RTVSPropertyOp28
 70
     1
102
RTVSPropertyOp29
 70
     1
102
RTVSPropertyOp30
 70
     1
102
RTVSPropertyOp31
 70
     1
102
RTVSPropertyOp32
 70
     1
  0
XRECORD
  5
152A
102
{ACAD_REACTORS
330
1529
102
}
330
1529
100
AcDbXrecord
280
     1
102
RTVSPropertyOp0
 70
     1
102
RTVSPropertyOp1
 70
     1
102
RTVSPropertyOp2
 70
     1
102
RTVSPropertyOp3
 70
     1
102
RTVSPropertyOp4
 70
     1
102
RTVSPropertyOp5
 70
     1
102
RTVSPropertyOp6
 70
     1
102
RTVSPropertyOp7
 70
     1
102
RTVSPropertyOp8
 70
     1
102
RTVSPropertyOp9
 70
     1
102
RTVSPropertyOp10
 70
     1
102
RTVSPropertyOp11
 70
     1
102
RTVSPropertyOp12
 70
     1
102
RTVSPropertyOp13
 70
     1
102
RTVSPropertyOp14
 70
     1
102
RTVSPropertyOp15
 70
     1
102
RTVSPropertyOp16
 70
     1
102
RTVSPropertyOp17
 70
     1
102
RTVSPropertyOp18
 70
     1
102
RTVSPropertyOp19
 70
     1
102
RTVSPropertyOp20
 70
     1
102
RTVSPropertyOp21
 70
     1
102
RTVSPropertyOp22
 70
     1
102
RTVSPropertyOp23
 70
     1
102
RTVSPropertyOp24
 70
     1
102
RTVSPropertyOp25
 70
     1
102
RTVSPropertyOp26
 70
     1
102
RTVSPropertyOp27
 70
     1
102
RTVSPropertyOp28
 70
     1
102
RTVSPropertyOp29
 70
     1
102
RTVSPropertyOp30
 70
     1
102
RTVSPropertyOp31
 70
     1
102
RTVSPropertyOp32
 70
     1
  0
XRECORD
  5
154A
102
{ACAD_REACTORS
330
1549
102
}
330
1549
100
AcDbXrecord
280
     1
102
RTVSPropertyOp0
 70
     1
102
RTVSPropertyOp1
 70
     1
102
RTVSPropertyOp2
 70
     1
102
RTVSPropertyOp3
 70
     1
102
RTVSPropertyOp4
 70
     1
102
RTVSPropertyOp5
 70
     1
102
RTVSPropertyOp6
 70
     1
102
RTVSPropertyOp7
 70
     1
102
RTVSPropertyOp8
 70
     1
102
RTVSPropertyOp9
 70
     1
102
RTVSPropertyOp10
 70
     1
102
RTVSPropertyOp11
 70
     1
102
RTVSPropertyOp12
 70
     1
102
RTVSPropertyOp13
 70
     1
102
RTVSPropertyOp14
 70
     1
102
RTVSPropertyOp15
 70
     1
102
RTVSPropertyOp16
 70
     1
102
RTVSPropertyOp17
 70
     1
102
RTVSPropertyOp18
 70
     1
102
RTVSPropertyOp19
 70
     1
102
RTVSPropertyOp20
 70
     1
102
RTVSPropertyOp21
 70
     1
102
RTVSPropertyOp22
 70
     1
102
RTVSPropertyOp23
 70
     1
102
RTVSPropertyOp24
 70
     1
102
RTVSPropertyOp25
 70
     1
102
RTVSPropertyOp26
 70
     1
102
RTVSPropertyOp27
 70
     1
102
RTVSPropertyOp28
 70
     1
102
RTVSPropertyOp29
 70
     1
102
RTVSPropertyOp30
 70
     1
102
RTVSPropertyOp31
 70
     1
102
RTVSPropertyOp32
 70
     1
  0
XRECORD
  5
1548
102
{ACAD_REACTORS
330
1547
102
}
330
1547
100
AcDbXrecord
280
     1
102
RTVSPropertyOp0
 70
     1
102
RTVSPropertyOp1
 70
     1
102
RTVSPropertyOp2
 70
     1
102
RTVSPropertyOp3
 70
     1
102
RTVSPropertyOp4
 70
     1
102
RTVSPropertyOp5
 70
     1
102
RTVSPropertyOp6
 70
     1
102
RTVSPropertyOp7
 70
     1
102
RTVSPropertyOp8
 70
     1
102
RTVSPropertyOp9
 70
     1
102
RTVSPropertyOp10
 70
     1
102
RTVSPropertyOp11
 70
     1
102
RTVSPropertyOp12
 70
     1
102
RTVSPropertyOp13
 70
     1
102
RTVSPropertyOp14
 70
     1
102
RTVSPropertyOp15
 70
     1
102
RTVSPropertyOp16
 70
     1
102
RTVSPropertyOp17
 70
     1
102
RTVSPropertyOp18
 70
     1
102
RTVSPropertyOp19
 70
     1
102
RTVSPropertyOp20
 70
     1
102
RTVSPropertyOp21
 70
     1
102
RTVSPropertyOp22
 70
     1
102
RTVSPropertyOp23
 70
     1
102
RTVSPropertyOp24
 70
     1
102
RTVSPropertyOp25
 70
     1
102
RTVSPropertyOp26
 70
     1
102
RTVSPropertyOp27
 70
     1
102
RTVSPropertyOp28
 70
     1
102
RTVSPropertyOp29
 70
     1
102
RTVSPropertyOp30
 70
     1
102
RTVSPropertyOp31
 70
     1
102
RTVSPropertyOp32
 70
     1
  0
XRECORD
  5
1542
102
{ACAD_REACTORS
330
1541
102
}
330
1541
100
AcDbXrecord
280
     1
102
RTVSPropertyOp0
 70
     1
102
RTVSPropertyOp1
 70
     1
102
RTVSPropertyOp2
 70
     1
102
RTVSPropertyOp3
 70
     1
102
RTVSPropertyOp4
 70
     1
102
RTVSPropertyOp5
 70
     1
102
RTVSPropertyOp6
 70
     1
102
RTVSPropertyOp7
 70
     1
102
RTVSPropertyOp8
 70
     1
102
RTVSPropertyOp9
 70
     1
102
RTVSPropertyOp10
 70
     1
102
RTVSPropertyOp11
 70
     1
102
RTVSPropertyOp12
 70
     1
102
RTVSPropertyOp13
 70
     1
102
RTVSPropertyOp14
 70
     1
102
RTVSPropertyOp15
 70
     1
102
RTVSPropertyOp16
 70
     1
102
RTVSPropertyOp17
 70
     1
102
RTVSPropertyOp18
 70
     1
102
RTVSPropertyOp19
 70
     1
102
RTVSPropertyOp20
 70
     1
102
RTVSPropertyOp21
 70
     1
102
RTVSPropertyOp22
 70
     1
102
RTVSPropertyOp23
 70
     1
102
RTVSPropertyOp24
 70
     1
102
RTVSPropertyOp25
 70
     1
102
RTVSPropertyOp26
 70
     1
102
RTVSPropertyOp27
 70
     1
102
RTVSPropertyOp28
 70
     1
102
RTVSPropertyOp29
 70
     1
102
RTVSPropertyOp30
 70
     1
102
RTVSPropertyOp31
 70
     1
102
RTVSPropertyOp32
 70
     1
  0
XRECORD
  5
1544
102
{ACAD_REACTORS
330
1543
102
}
330
1543
100
AcDbXrecord
280
     1
102
RTVSPropertyOp0
 70
     1
102
RTVSPropertyOp1
 70
     1
102
RTVSPropertyOp2
 70
     1
102
RTVSPropertyOp3
 70
     1
102
RTVSPropertyOp4
 70
     1
102
RTVSPropertyOp5
 70
     1
102
RTVSPropertyOp6
 70
     1
102
RTVSPropertyOp7
 70
     1
102
RTVSPropertyOp8
 70
     1
102
RTVSPropertyOp9
 70
     1
102
RTVSPropertyOp10
 70
     1
102
RTVSPropertyOp11
 70
     1
102
RTVSPropertyOp12
 70
     1
102
RTVSPropertyOp13
 70
     1
102
RTVSPropertyOp14
 70
     1
102
RTVSPropertyOp15
 70
     1
102
RTVSPropertyOp16
 70
     1
102
RTVSPropertyOp17
 70
     1
102
RTVSPropertyOp18
 70
     1
102
RTVSPropertyOp19
 70
     1
102
RTVSPropertyOp20
 70
     1
102
RTVSPropertyOp21
 70
     1
102
RTVSPropertyOp22
 70
     1
102
RTVSPropertyOp23
 70
     1
102
RTVSPropertyOp24
 70
     1
102
RTVSPropertyOp25
 70
     1
102
RTVSPropertyOp26
 70
     1
102
RTVSPropertyOp27
 70
     1
102
RTVSPropertyOp28
 70
     1
102
RTVSPropertyOp29
 70
     1
102
RTVSPropertyOp30
 70
     1
102
RTVSPropertyOp31
 70
     1
102
RTVSPropertyOp32
 70
     1
  0
XRECORD
  5
1530
102
{ACAD_REACTORS
330
152F
102
}
330
152F
100
AcDbXrecord
280
     1
102
RTVSPropertyOp0
 70
     1
102
RTVSPropertyOp1
 70
     1
102
RTVSPropertyOp2
 70
     1
102
RTVSPropertyOp3
 70
     1
102
RTVSPropertyOp4
 70
     1
102
RTVSPropertyOp5
 70
     1
102
RTVSPropertyOp6
 70
     1
102
RTVSPropertyOp7
 70
     1
102
RTVSPropertyOp8
 70
     1
102
RTVSPropertyOp9
 70
     1
102
RTVSPropertyOp10
 70
     1
102
RTVSPropertyOp11
 70
     1
102
RTVSPropertyOp12
 70
     1
102
RTVSPropertyOp13
 70
     1
102
RTVSPropertyOp14
 70
     1
102
RTVSPropertyOp15
 70
     1
102
RTVSPropertyOp16
 70
     1
102
RTVSPropertyOp17
 70
     1
102
RTVSPropertyOp18
 70
     1
102
RTVSPropertyOp19
 70
     1
102
RTVSPropertyOp20
 70
     1
102
RTVSPropertyOp21
 70
     1
102
RTVSPropertyOp22
 70
     1
102
RTVSPropertyOp23
 70
     1
102
RTVSPropertyOp24
 70
     1
102
RTVSPropertyOp25
 70
     1
102
RTVSPropertyOp26
 70
     1
102
RTVSPropertyOp27
 70
     1
102
RTVSPropertyOp28
 70
     1
102
RTVSPropertyOp29
 70
     1
102
RTVSPropertyOp30
 70
     1
102
RTVSPropertyOp31
 70
     1
102
RTVSPropertyOp32
 70
     1
  0
XRECORD
  5
153E
102
{ACAD_REACTORS
330
153D
102
}
330
153D
100
AcDbXrecord
280
     1
102
RTVSPropertyOp0
 70
     1
102
RTVSPropertyOp1
 70
     1
102
RTVSPropertyOp2
 70
     1
102
RTVSPropertyOp3
 70
     1
102
RTVSPropertyOp4
 70
     1
102
RTVSPropertyOp5
 70
     1
102
RTVSPropertyOp6
 70
     1
102
RTVSPropertyOp7
 70
     1
102
RTVSPropertyOp8
 70
     1
102
RTVSPropertyOp9
 70
     1
102
RTVSPropertyOp10
 70
     1
102
RTVSPropertyOp11
 70
     1
102
RTVSPropertyOp12
 70
     1
102
RTVSPropertyOp13
 70
     1
102
RTVSPropertyOp14
 70
     1
102
RTVSPropertyOp15
 70
     1
102
RTVSPropertyOp16
 70
     1
102
RTVSPropertyOp17
 70
     1
102
RTVSPropertyOp18
 70
     1
102
RTVSPropertyOp19
 70
     1
102
RTVSPropertyOp20
 70
     1
102
RTVSPropertyOp21
 70
     1
102
RTVSPropertyOp22
 70
     1
102
RTVSPropertyOp23
 70
     1
102
RTVSPropertyOp24
 70
     1
102
RTVSPropertyOp25
 70
     1
102
RTVSPropertyOp26
 70
     1
102
RTVSPropertyOp27
 70
     1
102
RTVSPropertyOp28
 70
     1
102
RTVSPropertyOp29
 70
     1
102
RTVSPropertyOp30
 70
     1
102
RTVSPropertyOp31
 70
     1
102
RTVSPropertyOp32
 70
     1
  0
XRECORD
  5
1546
102
{ACAD_REACTORS
330
1545
102
}
330
1545
100
AcDbXrecord
280
     1
102
RTVSPropertyOp0
 70
     1
102
RTVSPropertyOp1
 70
     1
102
RTVSPropertyOp2
 70
     1
102
RTVSPropertyOp3
 70
     1
102
RTVSPropertyOp4
 70
     1
102
RTVSPropertyOp5
 70
     1
102
RTVSPropertyOp6
 70
     1
102
RTVSPropertyOp7
 70
     1
102
RTVSPropertyOp8
 70
     1
102
RTVSPropertyOp9
 70
     1
102
RTVSPropertyOp10
 70
     1
102
RTVSPropertyOp11
 70
     1
102
RTVSPropertyOp12
 70
     1
102
RTVSPropertyOp13
 70
     1
102
RTVSPropertyOp14
 70
     1
102
RTVSPropertyOp15
 70
     1
102
RTVSPropertyOp16
 70
     1
102
RTVSPropertyOp17
 70
     1
102
RTVSPropertyOp18
 70
     1
102
RTVSPropertyOp19
 70
     1
102
RTVSPropertyOp20
 70
     1
102
RTVSPropertyOp21
 70
     1
102
RTVSPropertyOp22
 70
     1
102
RTVSPropertyOp23
 70
     1
102
RTVSPropertyOp24
 70
     1
102
RTVSPropertyOp25
 70
     1
102
RTVSPropertyOp26
 70
     1
102
RTVSPropertyOp27
 70
     1
102
RTVSPropertyOp28
 70
     1
102
RTVSPropertyOp29
 70
     1
102
RTVSPropertyOp30
 70
     1
102
RTVSPropertyOp31
 70
     1
102
RTVSPropertyOp32
 70
     1
  0
ENDSEC
  0
EOF
