  0
SECTION
  2
HEADER
  9
$ACADVER
  1
AC1015
  9
$ACADMAINTVER
 70
    20
  9
$DWGCODEPAGE
  3
ANSI_1252
  9
$INSBASE
 10
0.0
 20
0.0
 30
0.0
  9
$EXTMIN
 10
-172495.0432480877
 20
-1392.822445456462
 30
0.0
  9
$EXTMAX
 10
-14169.48129973974
 20
130355.3070415377
 30
0.0
  9
$LIMMIN
 10
0.0
 20
0.0
  9
$LIMMAX
 10
100.0
 20
100.0
  9
$ORTHOMODE
 70
     1
  9
$REGENMODE
 70
     1
  9
$FILLMODE
 70
     1
  9
$QTEXTMODE
 70
     0
  9
$MIRRTEXT
 70
     1
  9
$LTSCALE
 40
0.3367003367003367
  9
$ATTMODE
 70
     1
  9
$TEXTSIZE
 40
250.0
  9
$TRACEWID
 40
1.0
  9
$TEXTSTYLE
  7
STANDARD
  9
$CLAYER
  8
0
  9
$CELTYPE
  6
BYLAYER
  9
$CECOLOR
 62
   256
  9
$CELTSCALE
 40
25.0
  9
$DISPSILH
 70
     0
  9
$DIMSCALE
 40
1.0
  9
$DIMASZ
 40
15.0
  9
$DIMEXO
 40
20.0
  9
$DIMDLI
 40
0.38
  9
$DIMRND
 40
0.0
  9
$DIMDLE
 40
0.0
  9
$DIMEXE
 40
15.0
  9
$DIMTP
 40
0.0
  9
$DIMTM
 40
0.0
  9
$DIMTXT
 40
25.0
  9
$DIMCEN
 40
15.0
  9
$DIMTSZ
 40
0.0
  9
$DIMTOL
 70
     0
  9
$DIMLIM
 70
     0
  9
$DIMTIH
 70
     1
  9
$DIMTOH
 70
     1
  9
$DIMSE1
 70
     0
  9
$DIMSE2
 70
     0
  9
$DIMTAD
 70
     0
  9
$DIMZIN
 70
     9
  9
$DIMBLK
  1

  9
$DIMASO
 70
     1
  9
$DIMSHO
 70
     1
  9
$DIMPOST
  1

  9
$DIMAPOST
  1

  9
$DIMALT
 70
     0
  9
$DIMALTD
 70
     2
  9
$DIMALTF
 40
25.4
  9
$DIMLFAC
 40
1.0
  9
$DIMTOFL
 70
     1
  9
$DIMTVP
 40
0.0
  9
$DIMTIX
 70
     0
  9
$DIMSOXD
 70
     0
  9
$DIMSAH
 70
     0
  9
$DIMBLK1
  1

  9
$DIMBLK2
  1

  9
$DIMSTYLE
  2
STANDARD
  9
$DIMCLRD
 70
     0
  9
$DIMCLRE
 70
     0
  9
$DIMCLRT
 70
   256
  9
$DIMTFAC
 40
1.0
  9
$DIMGAP
 40
5.0
  9
$DIMJUST
 70
     0
  9
$DIMSD1
 70
     0
  9
$DIMSD2
 70
     0
  9
$DIMTOLJ
 70
     1
  9
$DIMTZIN
 70
     0
  9
$DIMALTZ
 70
     0
  9
$DIMALTTZ
 70
     0
  9
$DIMUPT
 70
     1
  9
$DIMDEC
 70
     0
  9
$DIMTDEC
 70
     4
  9
$DIMALTU
 70
     2
  9
$DIMALTTD
 70
     2
  9
$DIMTXSTY
  7
STANDARD
  9
$DIMAUNIT
 70
     0
  9
$DIMADEC
 70
     0
  9
$DIMALTRND
 40
0.0
  9
$DIMAZIN
 70
     0
  9
$DIMDSEP
 70
    46
  9
$DIMATFIT
 70
     3
  9
$DIMFRAC
 70
     0
  9
$DIMLDRBLK
  1

  9
$DIMLUNIT
 70
     2
  9
$DIMLWD
 70
    -2
  9
$DIMLWE
 70
    -2
  9
$DIMTMOVE
 70
     0
  9
$LUNITS
 70
     2
  9
$LUPREC
 70
     4
  9
$SKETCHINC
 40
1.0
  9
$FILLETRAD
 40
28.0
  9
$AUNITS
 70
     0
  9
$AUPREC
 70
     0
  9
$MENU
  1
.
  9
$ELEVATION
 40
0.0
  9
$PELEVATION
 40
0.0
  9
$THICKNESS
 40
0.0
  9
$LIMCHECK
 70
     0
  9
$CHAMFERA
 40
2.0
  9
$CHAMFERB
 40
2.0
  9
$CHAMFERC
 40
6.734006734006732
  9
$CHAMFERD
 40
0.0
  9
$SKPOLY
 70
     0
  9
$TDCREATE
 40
2450522.528259028
  9
$TDUCREATE
 40
2450522.132425695
  9
$TDUPDATE
 40
2453871.480106331
  9
$TDUUPDATE
 40
2453871.084272997
  9
$TDINDWG
 40
3.4350901852
  9
$TDUSRTIMER
 40
3.4350889120
  9
$USRTIMER
 70
     1
  9
$ANGBASE
 50
0.0
  9
$ANGDIR
 70
     0
  9
$PDMODE
 70
     0
  9
$PDSIZE
 40
0.0
  9
$PLINEWID
 40
0.0
  9
$SPLFRAME
 70
     0
  9
$SPLINETYPE
 70
     6
  9
$SPLINESEGS
 70
     8
  9
$HANDSEED
  5
367
  9
$SURFTAB1
 70
     6
  9
$SURFTAB2
 70
     6
  9
$SURFTYPE
 70
     6
  9
$SURFU
 70
     6
  9
$SURFV
 70
     6
  9
$UCSBASE
  2

  9
$UCSNAME
  2

  9
$UCSORG
 10
0.0
 20
0.0
 30
0.0
  9
$UCSXDIR
 10
1.0
 20
0.0
 30
0.0
  9
$UCSYDIR
 10
0.0
 20
1.0
 30
0.0
  9
$UCSORTHOREF
  2

  9
$UCSORTHOVIEW
 70
     0
  9
$UCSORGTOP
 10
0.0
 20
0.0
 30
0.0
  9
$UCSORGBOTTOM
 10
0.0
 20
0.0
 30
0.0
  9
$UCSORGLEFT
 10
0.0
 20
0.0
 30
0.0
  9
$UCSORGRIGHT
 10
0.0
 20
0.0
 30
0.0
  9
$UCSORGFRONT
 10
0.0
 20
0.0
 30
0.0
  9
$UCSORGBACK
 10
0.0
 20
0.0
 30
0.0
  9
$PUCSBASE
  2

  9
$PUCSNAME
  2

  9
$PUCSORG
 10
0.0
 20
0.0
 30
0.0
  9
$PUCSXDIR
 10
1.0
 20
0.0
 30
0.0
  9
$PUCSYDIR
 10
0.0
 20
1.0
 30
0.0
  9
$PUCSORTHOREF
  2

  9
$PUCSORTHOVIEW
 70
     0
  9
$PUCSORGTOP
 10
0.0
 20
0.0
 30
0.0
  9
$PUCSORGBOTTOM
 10
0.0
 20
0.0
 30
0.0
  9
$PUCSORGLEFT
 10
0.0
 20
0.0
 30
0.0
  9
$PUCSORGRIGHT
 10
0.0
 20
0.0
 30
0.0
  9
$PUCSORGFRONT
 10
0.0
 20
0.0
 30
0.0
  9
$PUCSORGBACK
 10
0.0
 20
0.0
 30
0.0
  9
$USERI1
 70
     0
  9
$USERI2
 70
     0
  9
$USERI3
 70
     0
  9
$USERI4
 70
     0
  9
$USERI5
 70
     0
  9
$USERR1
 40
0.0
  9
$USERR2
 40
0.0
  9
$USERR3
 40
0.0
  9
$USERR4
 40
0.0
  9
$USERR5
 40
0.0
  9
$WORLDVIEW
 70
     1
  9
$SHADEDGE
 70
     3
  9
$SHADEDIF
 70
    70
  9
$TILEMODE
 70
     1
  9
$MAXACTVP
 70
    16
  9
$PINSBASE
 10
0.0
 20
0.0
 30
0.0
  9
$PLIMCHECK
 70
     0
  9
$PEXTMIN
 10
1.000000000000000E+20
 20
1.000000000000000E+20
 30
1.000000000000000E+20
  9
$PEXTMAX
 10
-1.000000000000000E+20
 20
-1.000000000000000E+20
 30
-1.000000000000000E+20
  9
$PLIMMIN
 10
0.0
 20
0.0
  9
$PLIMMAX
 10
420.0
 20
297.0
  9
$UNITMODE
 70
     0
  9
$VISRETAIN
 70
     0
  9
$PLINEGEN
 70
     0
  9
$PSLTSCALE
 70
     1
  9
$TREEDEPTH
 70
  3020
  9
$CMLSTYLE
  2
STANDARD
  9
$CMLJUST
 70
     0
  9
$CMLSCALE
 40
1.0
  9
$PROXYGRAPHICS
 70
     1
  9
$MEASUREMENT
 70
     0
  9
$CELWEIGHT
370
    -1
  9
$ENDCAPS
280
     0
  9
$JOINSTYLE
280
     0
  9
$LWDISPLAY
290
     0
  9
$INSUNITS
 70
     0
  9
$HYPERLINKBASE
  1

  9
$STYLESHEET
  1

  9
$XEDIT
290
     1
  9
$CEPSNTYPE
380
     0
  9
$PSTYLEMODE
290
     1
  9
$FINGERPRINTGUID
  2
{CD85ED12-43BC-4130-B971-E118BB4A2971}
  9
$VERSIONGUID
  2
{738BD271-FC84-4F4A-B5ED-0CC34FFBE465}
  9
$EXTNAMES
290
     1
  9
$PSVPSCALE
 40
0.0
  9
$OLESTARTUP
290
     0
  0
ENDSEC
  0
SECTION
  2
CLASSES
  0
CLASS
  1
ACDBDICTIONARYWDFLT
  2
AcDbDictionaryWithDefault
  3
ObjectDBX Classes
 90
        0
280
     0
281
     0
  0
CLASS
  1
DICTIONARYVAR
  2
AcDbDictionaryVar
  3
ObjectDBX Classes
 90
        0
280
     0
281
     0
  0
CLASS
  1
ACDBPLACEHOLDER
  2
AcDbPlaceHolder
  3
ObjectDBX Classes
 90
        0
280
     0
281
     0
  0
CLASS
  1
LAYOUT
  2
AcDbLayout
  3
ObjectDBX Classes
 90
        0
280
     0
281
     0
  0
ENDSEC
  0
SECTION
  2
TABLES
  0
TABLE
  2
VPORT
  5
12
330
0
100
AcDbSymbolTable
 70
     2
  0
VPORT
  5
35F
330
12
100
AcDbSymbolTableRecord
100
AcDbViewportTableRecord
  2
*Active
 70
     0
 10
0.0
 20
0.0
 11
1.0
 21
1.0
 12
-93332.26227391373
 22
64481.24229804061
 13
0.0
 23
0.0
 14
2.0
 24
2.0
 15
0.0
 25
0.0
 16
0.0
 26
0.0
 36
1.0
 17
0.0
 27
0.0
 37
0.0
 40
132716.865733222
 41
1.538650306748466
 42
50.0
 43
0.0
 44
0.0
 50
0.0
 51
0.0
 71
     0
 72
   100
 73
     1
 74
     0
 75
     0
 76
     0
 77
     0
 78
     0
281
     0
 65
     1
110
0.0
120
0.0
130
0.0
111
1.0
121
0.0
131
0.0
112
0.0
122
1.0
132
0.0
 79
     0
146
0.0
  0
ENDTAB
  0
TABLE
  2
LTYPE
  5
E
330
0
100
AcDbSymbolTable
 70
     1
  0
LTYPE
  5
F
330
E
100
AcDbSymbolTableRecord
100
AcDbLinetypeTableRecord
  2
BYBLOCK
 70
     0
  3

 72
    65
 73
     0
 40
0.0
  0
LTYPE
  5
6
330
E
100
AcDbSymbolTableRecord
100
AcDbLinetypeTableRecord
  2
BYLAYER
 70
     0
  3

 72
    65
 73
     0
 40
0.0
  0
LTYPE
  5
5
330
E
100
AcDbSymbolTableRecord
100
AcDbLinetypeTableRecord
  2
CONTINUOUS
 70
     0
  3
Solid line
 72
    65
 73
     0
 40
0.0
  0
ENDTAB
  0
TABLE
  2
LAYER
  5
B
330
0
100
AcDbSymbolTable
 70
     2
  0
LAYER
  5
4
330
B
100
AcDbSymbolTableRecord
100
AcDbLayerTableRecord
  2
0
 70
     0
 62
     7
  6
CONTINUOUS
370
    -3
390
267
  0
LAYER
  5
2DE
330
B
100
AcDbSymbolTableRecord
100
AcDbLayerTableRecord
  2
Defpoints
 70
     0
 62
     7
  6
CONTINUOUS
290
     0
370
    -3
390
267
  0
ENDTAB
  0
TABLE
  2
STYLE
  5
C
330
0
100
AcDbSymbolTable
 70
     1
  0
STYLE
  5
D
330
C
100
AcDbSymbolTableRecord
100
AcDbTextStyleTableRecord
  2
STANDARD
 70
     0
 40
0.0
 41
1.0
 50
0.0
 71
     0
 42
250.0
  3
ISOCP
  4

  0
ENDTAB
  0
TABLE
  2
VIEW
  5
10
330
0
100
AcDbSymbolTable
 70
     0
  0
ENDTAB
  0
TABLE
  2
UCS
  5
11
330
0
100
AcDbSymbolTable
 70
     0
  0
ENDTAB
  0
TABLE
  2
APPID
  5
14
330
0
100
AcDbSymbolTable
 70
     1
  0
APPID
  5
15
330
14
100
AcDbSymbolTableRecord
100
AcDbRegAppTableRecord
  2
ACAD
 70
     0
  0
ENDTAB
  0
TABLE
  2
DIMSTYLE
  5
16
330
0
100
AcDbSymbolTable
 70
     1
100
AcDbDimStyleTable
 71
     1
340
1D
  0
DIMSTYLE
105
1D
330
16
100
AcDbSymbolTableRecord
100
AcDbDimStyleTableRecord
  2
STANDARD
 70
     0
340
D
  0
ENDTAB
  0
TABLE
  2
BLOCK_RECORD
  5
1
330
0
100
AcDbSymbolTable
 70
     4
  0
BLOCK_RECORD
  5
2
330
1
100
AcDbSymbolTableRecord
100
AcDbBlockTableRecord
  2
*MODEL_SPACE
340
26C
  0
BLOCK_RECORD
  5
8
330
1
100
AcDbSymbolTableRecord
100
AcDbBlockTableRecord
  2
*PAPER_SPACE
340
26D
  0
BLOCK_RECORD
  5
31A
330
1
100
AcDbSymbolTableRecord
100
AcDbBlockTableRecord
  2
*D0
340
0
  0
BLOCK_RECORD
  5
32A
330
1
100
AcDbSymbolTableRecord
100
AcDbBlockTableRecord
  2
*D1
340
0
  0
BLOCK_RECORD
  5
338
330
1
100
AcDbSymbolTableRecord
100
AcDbBlockTableRecord
  2
*D2
340
0
  0
BLOCK_RECORD
  5
346
330
1
100
AcDbSymbolTableRecord
100
AcDbBlockTableRecord
  2
*D3
340
0
  0
ENDTAB
  0
ENDSEC
  0
SECTION
  2
BLOCKS
  0
BLOCK
  5
3
330
2
100
AcDbEntity
  8
0
100
AcDbBlockBegin
  2
*MODEL_SPACE
 70
     0
 10
0.0
 20
0.0
 30
0.0
  3
*MODEL_SPACE
  1

  0
ENDBLK
  5
7
330
2
100
AcDbEntity
  8
0
100
AcDbBlockEnd
  0
BLOCK
  5
9
330
8
100
AcDbEntity
 67
     1
  8
0
100
AcDbBlockBegin
  2
*PAPER_SPACE
 70
     0
 10
0.0
 20
0.0
 30
0.0
  3
*PAPER_SPACE
  1

  0
ENDBLK
  5
A
330
8
100
AcDbEntity
 67
     1
  8
0
100
AcDbBlockEnd
  0
BLOCK
  5
325
330
31A
100
AcDbEntity
  8
0
 48
25.0
100
AcDbBlockBegin
  2
*D0
 70
     1
 10
0.0
 20
0.0
 30
0.0
  3
*D0
  1

  0
LINE
  5
31B
330
31A
100
AcDbEntity
  8
0
 62
     0
 48
25.0
370
    -2
100
AcDbLine
 10
-86.99999999999983
 20
98.49588662354609
 30
0.0
 11
-86.99999999999983
 21
99.78344580390128
 31
0.0
  0
LINE
  5
31C
330
31A
100
AcDbEntity
  8
0
 62
     0
 48
25.0
370
    -2
100
AcDbLine
 10
327.0000000000001
 20
98.49588662354609
 30
0.0
 11
327.0000000000001
 21
99.78344580390128
 31
0.0
  0
LINE
  5
31D
330
31A
100
AcDbEntity
  8
0
 62
     0
 48
25.0
370
    -2
100
AcDbLine
 10
-71.99999999999983
 20
84.78344580390126
 30
0.0
 11
96.70140044467713
 21
84.78344580390126
 31
0.0
  0
LINE
  5
31E
330
31A
100
AcDbEntity
  8
0
 62
     0
 48
25.0
370
    -2
100
AcDbLine
 10
312.0000000000001
 20
84.78344580390126
 30
0.0
 11
151.7014004446771
 21
84.78344580390126
 31
0.0
  0
SOLID
  5
31F
330
31A
100
AcDbEntity
  8
0
 62
     0
 48
25.0
100
AcDbTrace
 10
-71.99999999999983
 20
87.28344580390126
 30
0.0
 11
-71.99999999999983
 21
82.28344580390126
 31
0.0
 12
-86.99999999999983
 22
84.78344580390126
 32
0.0
 13
-86.99999999999983
 23
84.78344580390126
 33
0.0
  0
SOLID
  5
320
330
31A
100
AcDbEntity
  8
0
 62
     0
 48
25.0
100
AcDbTrace
 10
312.0000000000001
 20
87.28344580390126
 30
0.0
 11
312.0000000000001
 21
82.28344580390126
 31
0.0
 12
327.0000000000001
 22
84.78344580390126
 32
0.0
 13
327.0000000000001
 23
84.78344580390126
 33
0.0
  0
MTEXT
  5
321
330
31A
100
AcDbEntity
  8
0
 48
25.0
100
AcDbMText
 10
124.2014004446771
 20
84.78344580390126
 30
0.0
 40
25.0
 41
0.0
 71
     5
 72
     1
  1
\A1;414
 73
     1
 44
1.0
1001
ACAD
1000
MTEXTBEGIN
1070
    73
1070
     1
1070
    44
1040
1.0
1070
    74
1070
     0
1000
MTEXTEND
  0
POINT
  5
322
330
31A
100
AcDbEntity
  8
Defpoints
 62
     0
 48
25.0
100
AcDbPoint
 10
-86.99999999999983
 20
78.4958866235461
 30
0.0
  0
POINT
  5
323
330
31A
100
AcDbEntity
  8
Defpoints
 62
     0
 48
25.0
100
AcDbPoint
 10
327.0000000000001
 20
78.4958866235461
 30
0.0
  0
POINT
  5
324
330
31A
100
AcDbEntity
  8
Defpoints
 62
     0
 48
25.0
100
AcDbPoint
 10
327.0000000000001
 20
84.78344580390126
 30
0.0
  0
ENDBLK
  5
326
330
31A
100
AcDbEntity
  8
0
 48
25.0
100
AcDbBlockEnd
  0
BLOCK
  5
335
330
32A
100
AcDbEntity
  8
0
 48
25.0
100
AcDbBlockBegin
  2
*D1
 70
     1
 10
0.0
 20
0.0
 30
0.0
  3
*D1
  1

  0
LINE
  5
32B
330
32A
100
AcDbEntity
  8
0
 62
     0
 48
25.0
370
    -2
100
AcDbLine
 10
-88.49999999999985
 20
98.49588662354619
 30
0.0
 11
-88.49999999999985
 21
104.9162869995811
 31
0.0
  0
LINE
  5
32C
330
32A
100
AcDbEntity
  8
0
 62
     0
 48
25.0
370
    -2
100
AcDbLine
 10
328.5000000000001
 20
98.49588662354619
 30
0.0
 11
328.5000000000001
 21
104.9162869995811
 31
0.0
  0
LINE
  5
32D
330
32A
100
AcDbEntity
  8
0
 62
     0
 48
25.0
370
    -2
100
AcDbLine
 10
-73.49999999999984
 20
89.91628699958107
 30
0.0
 11
104.0200892938442
 21
89.91628699958107
 31
0.0
  0
LINE
  5
32E
330
32A
100
AcDbEntity
  8
0
 62
     0
 48
25.0
370
    -2
100
AcDbLine
 10
313.5000000000001
 20
89.91628699958107
 30
0.0
 11
156.5200892938442
 21
89.91628699958107
 31
0.0
  0
SOLID
  5
32F
330
32A
100
AcDbEntity
  8
0
 62
     0
 48
25.0
100
AcDbTrace
 10
-73.49999999999984
 20
92.41628699958107
 30
0.0
 11
-73.49999999999984
 21
87.41628699958107
 31
0.0
 12
-88.49999999999985
 22
89.91628699958107
 32
0.0
 13
-88.49999999999985
 23
89.91628699958107
 33
0.0
  0
SOLID
  5
330
330
32A
100
AcDbEntity
  8
0
 62
     0
 48
25.0
100
AcDbTrace
 10
313.5000000000001
 20
92.41628699958107
 30
0.0
 11
313.5000000000001
 21
87.41628699958107
 31
0.0
 12
328.5000000000001
 22
89.91628699958107
 32
0.0
 13
328.5000000000001
 23
89.91628699958107
 33
0.0
  0
MTEXT
  5
331
330
32A
100
AcDbEntity
  8
0
 48
25.0
100
AcDbMText
 10
130.2700892938442
 20
89.91628699958107
 30
0.0
 40
25.0
 41
0.0
 71
     5
 72
     1
  1
\A1;417
 73
     1
 44
1.0
1001
ACAD
1000
MTEXTBEGIN
1070
    73
1070
     1
1070
    44
1040
1.0
1070
    74
1070
     0
1000
MTEXTEND
  0
POINT
  5
332
330
32A
100
AcDbEntity
  8
Defpoints
 62
     0
 48
25.0
100
AcDbPoint
 10
-88.49999999999985
 20
78.49588662354619
 30
0.0
  0
POINT
  5
333
330
32A
100
AcDbEntity
  8
Defpoints
 62
     0
 48
25.0
100
AcDbPoint
 10
328.5000000000001
 20
78.49588662354619
 30
0.0
  0
POINT
  5
334
330
32A
100
AcDbEntity
  8
Defpoints
 62
     0
 48
25.0
100
AcDbPoint
 10
328.5000000000001
 20
89.91628699958107
 30
0.0
  0
ENDBLK
  5
336
330
32A
100
AcDbEntity
  8
0
 48
25.0
100
AcDbBlockEnd
  0
BLOCK
  5
343
330
338
100
AcDbEntity
  8
0
 48
25.0
100
AcDbBlockBegin
  2
*D2
 70
     1
 10
0.0
 20
0.0
 30
0.0
  3
*D2
  1

  0
LINE
  5
339
330
338
100
AcDbEntity
  8
0
 62
     0
 48
25.0
370
    -2
100
AcDbLine
 10
100.0000000000001
 20
245.4917732470926
 30
0.0
 11
40.11170969958725
 21
245.4917732470927
 31
0.0
  0
LINE
  5
33A
330
338
100
AcDbEntity
  8
0
 62
     0
 48
25.0
370
    -2
100
AcDbLine
 10
99.9999999999995
 20
-101.508226752906
 30
0.0
 11
40.11170969958718
 21
-101.508226752906
 31
0.0
  0
LINE
  5
33B
330
338
100
AcDbEntity
  8
0
 62
     0
 48
25.0
370
    -2
100
AcDbLine
 10
55.11170969958726
 20
230.4917732470927
 30
0.0
 11
55.11170969958723
 21
38.35623738867331
 31
0.0
  0
LINE
  5
33C
330
338
100
AcDbEntity
  8
0
 62
     0
 48
25.0
370
    -2
100
AcDbLine
 10
55.11170969958718
 20
-86.508226752906
 30
0.0
 11
55.11170969958721
 21
3.356237388673311
 31
0.0
  0
SOLID
  5
33D
330
338
100
AcDbEntity
  8
0
 62
     0
 48
25.0
100
AcDbTrace
 10
52.61170969958726
 20
230.4917732470927
 30
0.0
 11
57.61170969958726
 21
230.4917732470927
 31
0.0
 12
55.11170969958726
 22
245.4917732470927
 32
0.0
 13
55.11170969958726
 23
245.4917732470927
 33
0.0
  0
SOLID
  5
33E
330
338
100
AcDbEntity
  8
0
 62
     0
 48
25.0
100
AcDbTrace
 10
52.61170969958718
 20
-86.508226752906
 30
0.0
 11
57.61170969958718
 21
-86.508226752906
 31
0.0
 12
55.11170969958718
 22
-101.508226752906
 32
0.0
 13
55.11170969958718
 23
-101.508226752906
 33
0.0
  0
MTEXT
  5
33F
330
338
100
AcDbEntity
  8
0
 48
25.0
100
AcDbMText
 10
55.11170969958721
 20
20.85623738867332
 30
0.0
 40
25.0
 41
0.0
 71
     5
 72
     1
  1
\A1;347
 73
     1
 44
1.0
1001
ACAD
1000
MTEXTBEGIN
1070
    73
1070
     1
1070
    44
1040
1.0
1070
    74
1070
     0
1000
MTEXTEND
  0
POINT
  5
340
330
338
100
AcDbEntity
  8
Defpoints
 62
     0
 48
25.0
100
AcDbPoint
 10
120.0000000000001
 20
245.4917732470926
 30
0.0
  0
POINT
  5
341
330
338
100
AcDbEntity
  8
Defpoints
 62
     0
 48
25.0
100
AcDbPoint
 10
119.9999999999995
 20
-101.508226752906
 30
0.0
  0
POINT
  5
342
330
338
100
AcDbEntity
  8
Defpoints
 62
     0
 48
25.0
100
AcDbPoint
 10
55.11170969958718
 20
-101.508226752906
 30
0.0
  0
ENDBLK
  5
344
330
338
100
AcDbEntity
  8
0
 48
25.0
100
AcDbBlockEnd
  0
BLOCK
  5
351
330
346
100
AcDbEntity
  8
0
 48
25.0
100
AcDbBlockBegin
  2
*D3
 70
     1
 10
0.0
 20
0.0
 30
0.0
  3
*D3
  1

  0
LINE
  5
347
330
346
100
AcDbEntity
  8
0
 62
     0
 48
25.0
370
    -2
100
AcDbLine
 10
-74.47869554456281
 20
203.4960209217824
 30
0.0
 11
-169.5090644281369
 21
75.12479515829094
 31
0.0
  0
LINE
  5
348
330
346
100
AcDbEntity
  8
0
 62
     0
 48
25.0
370
    -2
100
AcDbLine
 10
297.0588990293931
 20
-71.54501305204881
 30
0.0
 11
202.028530145819
 21
-199.9162388155402
 31
0.0
  0
LINE
  5
349
330
346
100
AcDbEntity
  8
0
 62
     0
 48
25.0
370
    -2
100
AcDbLine
 10
-148.5282285257319
 20
78.25601294636552
 30
0.0
 11
-27.81781202802236
 21
-11.10322889028583
 31
0.0
  0
LINE
  5
34A
330
346
100
AcDbEntity
  8
0
 62
     0
 48
25.0
370
    -2
100
AcDbLine
 10
198.8973123577444
 20
-178.9354029131352
 30
0.0
 11
19.46838398144305
 21
-46.10815015012835
 31
0.0
  0
SOLID
  5
34B
330
346
100
AcDbEntity
  8
0
 62
     0
 48
25.0
100
AcDbTrace
 10
-147.0407603495377
 20
80.26535075390548
 30
0.0
 11
-150.0156967019261
 21
76.24667513882556
 31
0.0
 12
-160.5842553709717
 22
87.18082200353071
 32
0.0
 13
-160.5842553709717
 23
87.18082200353071
 33
0.0
  0
SOLID
  5
34C
330
346
100
AcDbEntity
  8
0
 62
     0
 48
25.0
100
AcDbTrace
 10
200.3847805339387
 20
-176.9260651055953
 30
0.0
 11
197.4098441815501
 21
-180.9447407206752
 31
0.0
 12
210.9533392029842
 22
-187.8602119703004
 32
0.0
 13
210.9533392029842
 23
-187.8602119703004
 33
0.0
  0
MTEXT
  5
34D
330
346
100
AcDbEntity
  8
0
 48
25.0
100
AcDbMText
 10
-4.174714023289651
 20
-28.60568952020708
 30
0.0
 40
25.0
 41
0.0
 71
     5
 72
     1
  1
\A1;462
 73
     1
 44
1.0
1001
ACAD
1000
MTEXTBEGIN
1070
    73
1070
     1
1070
    44
1040
1.0
1070
    74
1070
     0
1000
MTEXTEND
  0
POINT
  5
34E
330
346
100
AcDbEntity
  8
Defpoints
 62
     0
 48
25.0
100
AcDbPoint
 10
-62.57895013500922
 20
219.5707233821021
 30
0.0
  0
POINT
  5
34F
330
346
100
AcDbEntity
  8
Defpoints
 62
     0
 48
25.0
100
AcDbPoint
 10
308.9586444389466
 20
-55.47031059172912
 30
0.0
  0
POINT
  5
350
330
346
100
AcDbEntity
  8
Defpoints
 62
     0
 48
25.0
100
AcDbPoint
 10
210.9533392029842
 20
-187.8602119703004
 30
0.0
  0
ENDBLK
  5
352
330
346
100
AcDbEntity
  8
0
 48
25.0
100
AcDbBlockEnd
  0
ENDSEC
  0
SECTION
  2
ENTITIES
  0
LWPOLYLINE
  5
328
330
2
100
AcDbEntity
  8
0
 48
100.0
100
AcDbPolyline
 90
        8
 70
     1
 43
0.0
 10
-14169.48129973974
 20
37147.57813735914
 10
-14169.48129973974
 20
96753.83885825512
 42
0.4142135623730951
 10
-47770.94948302222
 20
130355.3070415376
 10
-138893.5750648052
 20
130355.3070415377
 42
0.4142135623730933
 10
-172495.0432480877
 20
96753.83885825521
 10
-172495.0432480877
 20
37147.57813735916
 42
0.3522849494188107
 10
-146093.8896755084
 20
4326.637663645938
 42
0.1084018896075519
 10
-40570.63487231929
 20
4326.637663645968
 42
0.3522849494188092
  0
ENDSEC
  0
SECTION
  2
OBJECTS
  0
DICTIONARY
  5
1A
330
0
100
AcDbDictionary
281
     1
  3
ACAD_COLOR
350
269
  3
ACAD_GROUP
350
18
  3
ACAD_LAYOUT
350
26A
  3
ACAD_MATERIAL
350
268
  3
ACAD_MLINESTYLE
350
19
  3
ACAD_PLOTSETTINGS
350
26B
  3
ACAD_PLOTSTYLENAME
350
266
  3
ACDBHEADERROUNDTRIPXREC
350
360
  3
AcDbVariableDictionary
350
29D
  0
DICTIONARY
  5
269
102
{ACAD_REACTORS
330
1A
102
}
330
1A
100
AcDbDictionary
281
     1
  0
DICTIONARY
  5
18
102
{ACAD_REACTORS
330
1A
102
}
330
1A
100
AcDbDictionary
281
     1
  0
DICTIONARY
  5
26A
102
{ACAD_REACTORS
330
1A
102
}
330
1A
100
AcDbDictionary
281
     1
  3
Layout1
350
26D
  3
Model
350
26C
  0
DICTIONARY
  5
268
102
{ACAD_REACTORS
330
1A
102
}
330
1A
100
AcDbDictionary
281
     1
  0
DICTIONARY
  5
19
102
{ACAD_REACTORS
330
1A
102
}
330
1A
100
AcDbDictionary
281
     1
  3
STANDARD
350
1C
  0
DICTIONARY
  5
26B
102
{ACAD_REACTORS
330
1A
102
}
330
1A
100
AcDbDictionary
281
     1
  0
ACDBDICTIONARYWDFLT
  5
266
102
{ACAD_REACTORS
330
1A
102
}
330
1A
100
AcDbDictionary
281
     1
  3
Normal
350
267
100
AcDbDictionaryWithDefault
340
267
  0
DICTIONARY
  5
360
102
{ACAD_REACTORS
330
1A
102
}
330
1A
100
AcDbDictionary
281
     1
  3
COLORDICT
350
362
  3
MATERIALDICT
350
361
  0
DICTIONARY
  5
29D
102
{ACAD_REACTORS
330
1A
102
}
330
1A
100
AcDbDictionary
281
     1
  3
DIMASSOC
350
29E
  3
PROJECTNAME
350
29F
  0
LAYOUT
  5
26D
102
{ACAD_XDICTIONARY
360
365
102
}
102
{ACAD_REACTORS
330
26A
102
}
330
26A
100
AcDbPlotSettings
  1

  2
HP LaserJet 6P
  4

  6

 40
0.0
 41
0.0
 42
0.0
 43
0.0
 44
0.0
 45
0.0
 46
0.0
 47
0.0
 48
0.0
 49
0.0
140
0.0
141
0.0
142
1.0
143
1.0
 70
   688
 72
     0
 73
     0
 74
     5
  7
monochrome.ctb
 75
    16
147
1.0
148
0.0
149
0.0
100
AcDbLayout
  1
Layout1
 70
     1
 71
     1
 10
0.0
 20
0.0
 11
420.0
 21
297.0
 12
0.0
 22
0.0
 32
0.0
 14
1.000000000000000E+20
 24
1.000000000000000E+20
 34
1.000000000000000E+20
 15
-1.000000000000000E+20
 25
-1.000000000000000E+20
 35
-1.000000000000000E+20
146
0.0
 13
0.0
 23
0.0
 33
0.0
 16
1.0
 26
0.0
 36
0.0
 17
0.0
 27
1.0
 37
0.0
 76
     0
330
8
  0
LAYOUT
  5
26C
102
{ACAD_XDICTIONARY
360
363
102
}
102
{ACAD_REACTORS
330
26A
102
}
330
26A
100
AcDbPlotSettings
  1

  2
HP LaserJet 6P
  4

  6

 40
0.0
 41
0.0
 42
0.0
 43
0.0
 44
0.0
 45
0.0
 46
0.0
 47
0.0
 48
0.0
 49
0.0
140
0.0
141
0.0
142
1.0
143
1.0
 70
  1712
 72
     0
 73
     0
 74
     0
  7
monochrome.ctb
 75
     0
147
1.0
148
0.0
149
0.0
100
AcDbLayout
  1
Model
 70
     1
 71
     0
 10
0.0
 20
0.0
 11
12.0
 21
9.0
 12
0.0
 22
0.0
 32
0.0
 14
0.0
 24
0.0
 34
0.0
 15
0.0
 25
0.0
 35
0.0
146
0.0
 13
0.0
 23
0.0
 33
0.0
 16
1.0
 26
0.0
 36
0.0
 17
0.0
 27
1.0
 37
0.0
 76
     0
330
2
  0
MLINESTYLE
  5
1C
102
{ACAD_REACTORS
330
19
102
}
330
19
100
AcDbMlineStyle
  2
STANDARD
 70
     0
  3

 62
     0
 51
90.0
 52
90.0
 71
     2
 49
0.5
 62
   256
  6
BYLAYER
 49
-0.5
 62
   256
  6
BYLAYER
  0
ACDBPLACEHOLDER
  5
267
102
{ACAD_REACTORS
330
266
102
}
330
266
  0
XRECORD
  5
362
102
{ACAD_REACTORS
330
360
102
}
330
360
100
AcDbXrecord
280
     1
340
269
  0
XRECORD
  5
361
102
{ACAD_REACTORS
330
360
102
}
330
360
100
AcDbXrecord
280
     1
340
268
  0
DICTIONARYVAR
  5
29E
102
{ACAD_REACTORS
330
29D
102
}
330
29D
100
DictionaryVariables
280
     0
  1
1
  0
DICTIONARYVAR
  5
29F
102
{ACAD_REACTORS
330
29D
102
}
330
29D
100
DictionaryVariables
280
     0
  1

  0
DICTIONARY
  5
365
330
26D
100
AcDbDictionary
280
     1
281
     1
  3
ACAD_XREC_ROUNDTRIP
360
366
  0
DICTIONARY
  5
363
330
26C
100
AcDbDictionary
280
     1
281
     1
  3
ACAD_XREC_ROUNDTRIP
360
364
  0
XRECORD
  5
366
102
{ACAD_REACTORS
330
365
102
}
330
365
100
AcDbXrecord
280
     1
102
SHADEPLOT
 70
     0
102
SHADEPLOTRESLEVEL
 70
     2
102
SHADEPLOTCUSTOMDPI
 70
   300
  0
XRECORD
  5
364
102
{ACAD_REACTORS
330
363
102
}
330
363
100
AcDbXrecord
280
     1
102
SHADEPLOT
 70
     0
102
SHADEPLOTRESLEVEL
 70
     2
102
SHADEPLOTCUSTOMDPI
 70
   300
  0
ENDSEC
  0
EOF
